  0
SECTION
  2
HEADER
  9
$ACADVER
  1
AC1009
  9
$INSBASE
 10
0.0
 20
0.0
 30
0.0
  9
$EXTMIN
 10
-170.0164782349211
 20
-265.80211091866681
 30
-0.0015258207003583
  9
$EXTMAX
 10
370.0164807494923
 20
537.08808227102497
 30
0.0000000349246037
  9
$LIMMIN
 10
0.0
 20
0.0
  9
$LIMMAX
 10
0.0
 20
0.0
  9
$ORTHOMODE
 70
     0
  9
$REGENMODE
 70
     1
  9
$FILLMODE
 70
     1
  9
$QTEXTMODE
 70
     0
  9
$MIRRTEXT
 70
     1
  9
$DRAGMODE
 70
     2
  9
$LTSCALE
 40
15.24
  9
$OSMODE
 70
   231
  9
$ATTMODE
 70
     1
  9
$TEXTSIZE
 40
0.0
  9
$TRACEWID
 40
1.0
  9
$TEXTSTYLE
  7
STANDARD
  9
$CLAYER
  8
DATA
  9
$CELTYPE
  6
BYLAYER
  9
$CECOLOR
 62
   256
  9
$DIMSCALE
 40
1.0
  9
$DIMASZ
 40
0.18
  9
$DIMEXO
 40
0.0625
  9
$DIMDLI
 40
0.38
  9
$DIMRND
 40
0.0
  9
$DIMDLE
 40
0.0
  9
$DIMEXE
 40
0.18
  9
$DIMTP
 40
0.0
  9
$DIMTM
 40
0.0
  9
$DIMTXT
 40
0.18
  9
$DIMCEN
 40
0.09
  9
$DIMTSZ
 40
0.0
  9
$DIMTOL
 70
     0
  9
$DIMLIM
 70
     0
  9
$DIMTIH
 70
     1
  9
$DIMTOH
 70
     1
  9
$DIMSE1
 70
     0
  9
$DIMSE2
 70
     0
  9
$DIMTAD
 70
     0
  9
$DIMZIN
 70
     0
  9
$DIMBLK
  1

  9
$DIMASO
 70
     1
  9
$DIMSHO
 70
     1
  9
$DIMPOST
  1

  9
$DIMAPOST
  1

  9
$DIMALT
 70
     0
  9
$DIMALTD
 70
     2
  9
$DIMALTF
 40
25.399999999999999
  9
$DIMLFAC
 40
1.0
  9
$DIMTOFL
 70
     0
  9
$DIMTVP
 40
0.0
  9
$DIMTIX
 70
     0
  9
$DIMSOXD
 70
     0
  9
$DIMSAH
 70
     0
  9
$DIMBLK1
  1

  9
$DIMBLK2
  1

  9
$DIMSTYLE
  2
STANDARD
  9
$DIMCLRD
 70
     0
  9
$DIMCLRE
 70
     0
  9
$DIMCLRT
 70
     0
  9
$DIMTFAC
 40
1.0
  9
$DIMGAP
 40
0.09
  9
$LUNITS
 70
     2
  9
$LUPREC
 70
     4
  9
$SKETCHINC
 40
0.1
  9
$FILLETRAD
 40
0.0
  9
$AUNITS
 70
     0
  9
$AUPREC
 70
     0
  9
$MENU
  1
acad
  9
$ELEVATION
 40
0.0
  9
$PELEVATION
 40
0.0
  9
$THICKNESS
 40
0.0
  9
$LIMCHECK
 70
     0
  9
$BLIPMODE
 70
     0
  9
$CHAMFERA
 40
0.0
  9
$CHAMFERB
 40
0.0
  9
$SKPOLY
 70
     0
  9
$TDCREATE
 40
2455223.869791667
  9
$TDUPDATE
 40
2455223.8717960068
  9
$TDINDWG
 40
0.0002390625
  9
$TDUSRTIMER
 40
0.0002390625
  9
$USRTIMER
 70
     1
  9
$ANGBASE
 50
0.0
  9
$ANGDIR
 70
     0
  9
$PDMODE
 70
     1
  9
$PDSIZE
 40
-2.0
  9
$PLINEWID
 40
0.0
  9
$COORDS
 70
     0
  9
$SPLFRAME
 70
     0
  9
$SPLINETYPE
 70
     6
  9
$SPLINESEGS
 70
     8
  9
$ATTDIA
 70
     0
  9
$ATTREQ
 70
     1
  9
$HANDLING
 70
     1
  9
$HANDSEED
  5
305
  9
$SURFTAB1
 70
     6
  9
$SURFTAB2
 70
     6
  9
$SURFTYPE
 70
     6
  9
$SURFU
 70
     6
  9
$SURFV
 70
     6
  9
$UCSNAME
  2

  9
$UCSORG
 10
0.0
 20
0.0
 30
0.0
  9
$UCSXDIR
 10
1.0
 20
0.0
 30
0.0
  9
$UCSYDIR
 10
0.0
 20
1.0
 30
0.0
  9
$PUCSNAME
  2

  9
$PUCSORG
 10
0.0
 20
0.0
 30
0.0
  9
$PUCSXDIR
 10
1.0
 20
0.0
 30
0.0
  9
$PUCSYDIR
 10
0.0
 20
1.0
 30
0.0
  9
$USERI1
 70
     0
  9
$USERI2
 70
     0
  9
$USERI3
 70
     0
  9
$USERI4
 70
     0
  9
$USERI5
 70
     0
  9
$USERR1
 40
0.0
  9
$USERR2
 40
0.0
  9
$USERR3
 40
0.0
  9
$USERR4
 40
0.0
  9
$USERR5
 40
0.0
  9
$WORLDVIEW
 70
     1
  9
$SHADEDGE
 70
     3
  9
$SHADEDIF
 70
    70
  9
$TILEMODE
 70
     1
  9
$MAXACTVP
 70
    64
  9
$PLIMCHECK
 70
     0
  9
$PEXTMIN
 10
1.0000000000000000E+020
 20
1.0000000000000000E+020
 30
1.0000000000000000E+020
  9
$PEXTMAX
 10
-1.0000000000000000E+020
 20
-1.0000000000000000E+020
 30
-1.0000000000000000E+020
  9
$PLIMMIN
 10
0.0
 20
0.0
  9
$PLIMMAX
 10
12.0
 20
9.0
  9
$UNITMODE
 70
     0
  9
$VISRETAIN
 70
     0
  9
$PLINEGEN
 70
     1
  9
$PSLTSCALE
 70
     0
  0
ENDSEC
  0
SECTION
  2
TABLES
  0
TABLE
  2
VPORT
 70
     1
  0
VPORT
  2
*ACTIVE
 70
     0
 10
0.0
 20
0.0
 11
1.0
 21
1.0
 12
100.0000012572857
 22
135.64298567617911
 13
0.0
 23
0.0
 14
1.0
 24
1.0
 15
0.0
 25
0.0
 16
0.0
 26
0.0
 36
1.0
 17
0.0
 27
0.0
 37
0.0
 40
808.80830272180265
 41
1.964329643296433
 42
50.0
 43
0.0
 44
0.0
 50
0.0
 51
0.0
 71
     0
 72
  2000
 73
     1
 74
     1
 75
     0
 76
     0
 77
     0
 78
     0
  0
ENDTAB
  0
TABLE
  2
LTYPE
 70
    11
  0
LTYPE
  2
CONTINUOUS
 70
     0
  3
Solid line
 72
    65
 73
     0
 40
0.0
  0
LTYPE
  2
STYLE_05
 70
     0
  3

 72
    65
 73
     2
 40
0.208282470703125
 49
0.069427490234375
 49
-0.13885498046875
  0
ENDTAB
  0
TABLE
  2
LAYER
 70
     6
  0
LAYER
  2
0
 70
     0
 62
     7
  6
CONTINUOUS
  0
LAYER
  2
DATA
 70
     0
 62
     7
  6
CONTINUOUS
  0
LAYER
  2
HIBINO-BASE
 70
     0
 62
     7
  6
CONTINUOUS
  0
LAYER
  2
PATTERN_FILL
 70
     0
 62
     7
  6
CONTINUOUS
  0
LAYER
  2
SPEC
 70
     0
 62
     7
  6
CONTINUOUS
  0
LAYER
  2
DIMNSIONS
 70
     0
 62
     7
  6
CONTINUOUS
  0
ENDTAB
  0
TABLE
  2
STYLE
 70
     3
  0
STYLE
  2
STANDARD
 70
     0
 40
0.0
 41
1.0
 50
0.0
 71
     0
 42
0.0
  3
txt
  4
BIGFONT.SHX
  0
ENDTAB
  0
TABLE
  2
VIEW
 70
     0
  0
ENDTAB
  0
TABLE
  2
UCS
 70
     0
  0
ENDTAB
  0
TABLE
  2
APPID
 70
     3
  0
APPID
  2
ACAD
 70
     0
  0
APPID
  2
ACADANNOTATIVE
 70
     0
  0
APPID
  2
ACAD_MLEADERVER
 70
     0
  0
ENDTAB
  0
TABLE
  2
DIMSTYLE
 70
     2
  0
DIMSTYLE
  2
STANDARD
 70
     0
  3

  4

  5

  6

  7

 40
1.0
 41
0.18
 42
0.0625
 43
0.38
 44
0.18
 45
0.0
 46
0.0
 47
0.0
 48
0.0
140
0.18
141
0.09
142
0.0
143
25.399999999999999
144
1.0
145
0.0
146
1.0
147
0.09
 71
     0
 72
     0
 73
     1
 74
     1
 75
     0
 76
     0
 77
     0
 78
     0
170
     0
171
     2
172
     0
173
     0
174
     0
175
     0
176
     0
177
     0
178
     0
  0
ENDTAB
  0
ENDSEC
  0
SECTION
  2
BLOCKS
  0
BLOCK
  8
0
  2
$MODEL_SPACE
 70
     0
 10
0.0
 20
0.0
 30
0.0
  3
$MODEL_SPACE
  1

  0
ENDBLK
  5
299
  8
0
  0
BLOCK
 67
     1
  8
0
  2
$PAPER_SPACE
 70
     0
 10
0.0
 20
0.0
 30
0.0
  3
$PAPER_SPACE
  1

  0
ENDBLK
  5
295
 67
     1
  8
0
  0
ENDSEC
  0
SECTION
  2
ENTITIES
  0
LINE
  5
2D
  8
HIBINO-BASE
  6
CONTINUOUS
 62
     7
 10
-169.99999999999989
 20
537.06362999999999
 30
0.0
 11
370.0
 21
537.06362999999999
 31
0.0
  0
LINE
  5
2E
  8
HIBINO-BASE
  6
CONTINUOUS
 62
     7
 10
370.0
 20
-242.93637000000001
 30
0.0
 11
-169.99999999999989
 21
-242.93637000000001
 31
0.0
  0
LINE
  5
2F
  8
HIBINO-BASE
  6
CONTINUOUS
 62
     7
 10
-169.99999999999989
 20
-242.93637000000001
 30
0.0
 11
-169.99999999999989
 21
537.06362999999999
 31
0.0
  0
TEXT
  5
30
  8
HIBINO-BASE
 62
     7
 10
-148.44799999999989
 20
-262.1624033999999
 30
0.0
 40
10.800132539062499
  1
Hibino Corporation
 41
0.7
 11
-148.44799999999989
 21
-251.3622708609374
 31
0.0
 73
     3
  0
LINE
  5
31
  8
HIBINO-BASE
  6
CONTINUOUS
 62
     7
 10
370.0
 20
537.06362999999999
 30
0.0
 11
370.0
 21
-242.93637000000001
 31
0.0
  0
LINE
  5
32
  8
HIBINO-BASE
  6
CONTINUOUS
 62
     7
 10
100.0
 20
-175.4363699999999
 30
0.0
 11
370.0
 21
-175.4363699999999
 31
0.0
  0
LINE
  5
33
  8
HIBINO-BASE
  6
CONTINUOUS
 62
     7
 10
100.0
 20
-242.93637000000001
 30
0.0
 11
100.0
 21
-175.4363699999999
 31
0.0
  0
LINE
  5
34
  8
HIBINO-BASE
  6
CONTINUOUS
 62
     7
 10
205.0
 20
-242.93637000000001
 30
0.0
 11
205.0
 21
-175.4363699999999
 31
0.0
  0
TEXT
  5
35
  8
HIBINO-BASE
 62
     7
 10
207.69999999999999
 20
-182.96244999999999
 30
0.0
 40
4.8865234374999993
  1
TITLE
 41
0.7
 11
207.69999999999999
 21
-178.0759265625
 31
0.0
 73
     3
  0
TEXT
  5
36
  8
HIBINO-BASE
 62
     7
 10
250.2051699999999
 20
-262.1624033999999
 30
0.0
 40
10.800132539062499
  1
ヒビノ株式会社
 41
0.7
 11
250.2051699999999
 21
-251.3622708609374
 31
0.0
 73
     3
  0
LINE
  5
37
  8
HIBINO-BASE
  6
CONTINUOUS
 62
     7
 10
100.0
 20
-212.9363699999999
 30
0.0
 11
370.0
 21
-212.9363699999999
 31
0.0
  0
TEXT
  5
38
  8
HIBINO-BASE
 62
     7
 10
245.19999999999999
 20
-220.29348999999999
 30
0.0
 40
4.8865234374999993
  1
DRAWN
 41
0.7
 11
245.19999999999999
 21
-215.4069665625
 31
0.0
 73
     3
  0
TEXT
  5
39
  8
HIBINO-BASE
 62
     7
 10
207.69999999999999
 20
-220.29348999999999
 30
0.0
 40
4.8865234374999993
  1
DESIGN
 41
0.7
 11
207.69999999999999
 21
-215.4069665625
 31
0.0
 73
     3
  0
TEXT
  5
3A
  8
HIBINO-BASE
 62
     7
 10
320.19999999999999
 20
-220.29348999999999
 30
0.0
 40
4.8865234374999993
  1
DRAWING NO.
 41
0.7
 11
320.19999999999999
 21
-215.4069665625
 31
0.0
 73
     3
  0
TEXT
  5
3B
  8
HIBINO-BASE
 62
     7
 10
282.69999999999999
 20
-220.29348999999999
 30
0.0
 40
4.8865234374999993
  1
CHECK
 41
0.7
 11
282.69999999999999
 21
-215.4069665625
 31
0.0
 73
     3
  0
LINE
  5
3C
  8
HIBINO-BASE
  6
CONTINUOUS
 62
     7
 10
143.12499999999989
 20
-239.18637000000001
 30
0.0
 11
154.375
 21
-227.93637000000001
 31
0.0
  0
LINE
  5
3D
  8
HIBINO-BASE
  6
CONTINUOUS
 62
     7
 10
137.5
 20
-242.93637000000001
 30
0.0
 11
137.5
 21
-212.9363699999999
 31
0.0
  0
LINE
  5
3E
  8
HIBINO-BASE
  6
CONTINUOUS
 62
     7
 10
167.5
 20
-242.93637000000001
 30
0.0
 11
167.5
 21
-212.9363699999999
 31
0.0
  0
LINE
  5
3F
  8
HIBINO-BASE
  6
CONTINUOUS
 62
     7
 10
242.5
 20
-212.9363699999999
 30
0.0
 11
242.5
 21
-242.93637000000001
 31
0.0
  0
LINE
  5
40
  8
HIBINO-BASE
  6
CONTINUOUS
 62
     7
 10
317.5
 20
-212.9363699999999
 30
0.0
 11
317.5
 21
-242.93637000000001
 31
0.0
  0
LINE
  5
41
  8
HIBINO-BASE
  6
CONTINUOUS
 62
     7
 10
279.99999999999989
 20
-242.93637000000001
 30
0.0
 11
279.99999999999989
 21
-212.9363699999999
 31
0.0
  0
TEXT
  5
42
  8
HIBINO-BASE
 62
     7
 10
170.06961999999999
 20
-234.34542999999999
 30
0.0
 40
4.8865234374999993
  1
'10.01.
 41
0.7
 11
170.06961999999999
 21
-229.4589065625
 31
0.0
 73
     3
  0
TEXT
  5
43
  8
HIBINO-BASE
 62
     7
 10
152.5
 20
-236.88820000000001
 30
0.0
 40
4.8865234374999993
  1
3
 41
0.7
 11
152.5
 21
-232.00167656249999
 31
0.0
 73
     3
  0
TEXT
  5
44
  8
HIBINO-BASE
 62
     7
 10
247.01743003310389
 20
-234.34542999999999
 30
0.0
 40
4.8865234374999993
  1
N.Sasaki
 41
0.7
 11
247.01743003310389
 21
-229.4589065625
 31
0.0
 73
     3
  0
TEXT
  5
45
  8
HIBINO-BASE
 62
     7
 10
111.65000000000001
 20
-237.00837000000001
 30
0.0
 40
9.7730468749999986
  1
A4
 41
0.7
 11
111.65000000000001
 21
-227.23532312500001
 31
0.0
 73
     3
  0
TEXT
  5
46
  8
HIBINO-BASE
 62
     7
 10
144.678988521451
 20
-231.80287230876249
 30
0.0
 40
4.8865234374999993
  1
1
 41
0.7
 11
144.678988521451
 21
-226.91634887126261
 31
0.0
 73
     3
  0
TEXT
  5
47
  8
HIBINO-BASE
 62
     7
 10
103.31493828790261
 20
-182.8622742440383
 30
0.0
 40
4.8865234374999993
  1
NOTE
 41
0.7
 11
103.31493828790261
 21
-177.97575080653829
 31
0.0
 73
     3
  0
LINE
  5
48
  8
PATTERN_FILL
  6
CONTINUOUS
 62
     7
 10
-34.630987352353927
 20
33.869012647646088
 30
0.0
 11
-27.856466876971709
 21
40.643533123028313
 31
0.0
  0
LINE
  5
49
  8
PATTERN_FILL
  6
CONTINUOUS
 62
     7
 10
-38.665417743858157
 20
24.834582256141839
 30
0.0
 11
-27.651419558359709
 21
35.848580441640308
 31
0.0
  0
LINE
  5
4A
  8
PATTERN_FILL
  6
CONTINUOUS
 62
     7
 10
-42.699848135362409
 20
15.800151864637609
 30
0.0
 11
-27.446372239747721
 21
31.05362776025229
 31
0.0
  0
LINE
  5
4B
  8
PATTERN_FILL
  6
CONTINUOUS
 62
     7
 10
-44.946677763439673
 20
8.5533222365603496
 30
0.0
 11
-27.241324921135728
 21
26.25867507886429
 31
0.0
  0
LINE
  5
4C
  8
PATTERN_FILL
  6
CONTINUOUS
 62
     7
 10
-44.122214950397677
 20
4.3777850496023234
 30
0.0
 11
-27.036277602523722
 21
21.46372239747631
 31
0.0
  0
LINE
  5
4D
  8
PATTERN_FILL
  6
CONTINUOUS
 62
     7
 10
-43.297752137355822
 20
0.2022478626441853
 30
0.0
 11
-26.831230283911719
 21
16.668769716088288
 31
0.0
  0
LINE
  5
4E
  8
PATTERN_FILL
  6
CONTINUOUS
 62
     7
 10
-42.473289324313882
 20
-3.9732893243138392
 30
0.0
 11
-26.626182965299758
 21
11.873817034700259
 31
0.0
  0
LINE
  5
4F
  8
PATTERN_FILL
  6
CONTINUOUS
 62
     7
 10
2.8883161512026301
 20
41.388316151202652
 30
0.0
 11
3.499999999999972
 21
41.999999999999993
 31
0.0
  0
LINE
  5
50
  8
PATTERN_FILL
  6
CONTINUOUS
 62
     7
 10
-41.648826511271963
 20
-8.1488265112719205
 30
0.0
 11
-26.421135646687759
 21
7.0788643533122686
 31
0.0
  0
LINE
  5
51
  8
PATTERN_FILL
  6
CONTINUOUS
 62
     7
 10
2.6649484536081469
 20
36.164948453608147
 30
0.0
 11
6.6728051593683508
 21
40.172805159368359
 31
0.0
  0
LINE
  5
52
  8
PATTERN_FILL
  6
CONTINUOUS
 62
     7
 10
-40.824363698230037
 20
-12.32436369823006
 30
0.0
 11
-26.216088328075791
 21
2.2839116719242161
 31
0.0
  0
LINE
  5
53
  8
PATTERN_FILL
  6
CONTINUOUS
 62
     7
 10
2.4415807560136491
 20
30.941580756013671
 30
0.0
 11
8.0184154781051973
 21
36.518415478105211
 31
0.0
  0
LINE
  5
54
  8
PATTERN_FILL
  6
CONTINUOUS
 62
     7
 10
-39.999900885188133
 20
-16.49990088518814
 30
0.0
 11
-26.011041009463781
 21
-2.5110410094637809
 31
0.0
  0
LINE
  5
55
  8
PATTERN_FILL
  6
CONTINUOUS
 62
     7
 10
2.2182130584191522
 20
25.71821305841917
 30
0.0
 11
9.364025796842057
 21
32.864025796842071
 31
0.0
  0
LINE
  5
56
  8
PATTERN_FILL
  6
CONTINUOUS
 62
     7
 10
-39.175438072146221
 20
-20.6754380721462
 30
0.0
 11
-25.8059936908518
 21
-7.3059936908517766
 31
0.0
  0
LINE
  5
57
  8
PATTERN_FILL
  6
CONTINUOUS
 62
     7
 10
1.994845360824655
 20
20.494845360824669
 30
0.0
 11
10.709636115578901
 21
29.209636115578931
 31
0.0
  0
LINE
  5
58
  8
PATTERN_FILL
  6
CONTINUOUS
 62
     7
 10
-38.350975259104288
 20
-24.850975259104281
 30
0.0
 11
-25.59586780679691
 21
-12.09586780679688
 31
0.0
  0
LINE
  5
59
  8
PATTERN_FILL
  6
CONTINUOUS
 62
     7
 10
1.7714776632301581
 20
15.27147766323017
 30
0.0
 11
12.055246434315761
 21
25.555246434315769
 31
0.0
  0
LINE
  5
5A
  8
PATTERN_FILL
  6
CONTINUOUS
 62
     7
 10
-37.526512446062341
 20
-29.02651244606233
 30
0.0
 11
-25.395899053627801
 21
-16.895899053627769
 31
0.0
  0
LINE
  5
5B
  8
PATTERN_FILL
  6
CONTINUOUS
 62
     7
 10
1.5481099656356461
 20
10.048109965635661
 30
0.0
 11
13.40085675305261
 21
21.900856753052629
 31
0.0
  0
LINE
  5
5C
  8
PATTERN_FILL
  6
CONTINUOUS
 62
     7
 10
-36.702049633020422
 20
-33.202049633020408
 30
0.0
 11
-25.190851735015801
 21
-21.690851735015769
 31
0.0
  0
LINE
  5
5D
  8
PATTERN_FILL
  6
CONTINUOUS
 62
     7
 10
1.3247422680411629
 20
4.8247422680411756
 30
0.0
 11
14.746467071789469
 21
18.246467071789478
 31
0.0
  0
LINE
  5
5E
  8
PATTERN_FILL
  6
CONTINUOUS
 62
     7
 10
-35.877586819978511
 20
-37.37758681997849
 30
0.0
 11
-24.98580441640382
 21
-26.48580441640382
 31
0.0
  0
LINE
  5
5F
  8
PATTERN_FILL
  6
CONTINUOUS
 62
     7
 10
1.1013745704466791
 20
-0.3986254295533058
 30
0.0
 11
16.09207739052631
 21
14.592077390526329
 31
0.0
  0
LINE
  5
60
  8
PATTERN_FILL
  6
CONTINUOUS
 62
     7
 10
-35.053124006936592
 20
-41.553124006936571
 30
0.0
 11
-24.780757097791831
 21
-31.28075709779182
 31
0.0
  0
LINE
  5
61
  8
PATTERN_FILL
  6
CONTINUOUS
 62
     7
 10
0.8780068728521401
 20
-5.6219931271478449
 30
0.0
 11
17.437687709263159
 21
10.937687709263169
 31
0.0
  0
LINE
  5
62
  8
PATTERN_FILL
  6
CONTINUOUS
 62
     7
 10
-34.228661193894673
 20
-45.728661193894638
 30
0.0
 11
-24.575709779179832
 21
-36.07570977917981
 31
0.0
  0
LINE
  5
63
  8
PATTERN_FILL
  6
CONTINUOUS
 62
     7
 10
0.6546391752576568
 20
-10.845360824742331
 30
0.0
 11
16.943096166374492
 21
5.4430961663745157
 31
0.0
  0
LINE
  5
64
  8
PATTERN_FILL
  6
CONTINUOUS
 62
     7
 10
-33.404198380852762
 20
-49.904198380852733
 30
0.0
 11
-24.370662460567839
 21
-40.870662460567807
 31
0.0
  0
LINE
  5
65
  8
PATTERN_FILL
  6
CONTINUOUS
 62
     7
 10
0.4312714776631736
 20
-16.068728522336809
 30
0.0
 11
15.89230724068927
 21
-0.6076927593107087
 31
0.0
  0
LINE
  5
66
  8
PATTERN_FILL
  6
CONTINUOUS
 62
     7
 10
-32.579735567810829
 20
-54.079735567810822
 30
0.0
 11
-24.16561514195585
 21
-45.665615141955833
 31
0.0
  0
LINE
  5
67
  8
PATTERN_FILL
  6
CONTINUOUS
 62
     7
 10
0.2079037800686905
 20
-21.292096219931292
 30
0.0
 11
14.841518315004061
 21
-6.658481684995933
 31
0.0
  0
LINE
  5
68
  8
PATTERN_FILL
  6
CONTINUOUS
 62
     7
 10
-31.75527275476891
 20
-58.255272754768903
 30
0.0
 11
-23.960567823343869
 21
-50.460567823343851
 31
0.0
  0
LINE
  5
69
  8
PATTERN_FILL
  6
CONTINUOUS
 62
     7
 10
-0.0154639175258211
 20
-26.51546391752581
 30
0.0
 11
13.79072938931885
 21
-12.709270610681131
 31
0.0
  0
LINE
  5
6A
  8
PATTERN_FILL
  6
CONTINUOUS
 62
     7
 10
-30.930809941726991
 20
-62.43080994172697
 30
0.0
 11
-23.75552050473188
 21
-55.255520504731848
 31
0.0
  0
LINE
  5
6B
  8
PATTERN_FILL
  6
CONTINUOUS
 62
     7
 10
-0.2388316151203043
 20
-31.73883161512029
 30
0.0
 11
12.73994046363366
 21
-18.760059536366331
 31
0.0
  0
LINE
  5
6C
  8
PATTERN_FILL
  6
CONTINUOUS
 62
     7
 10
-30.106347128685069
 20
-66.606347128685059
 30
0.0
 11
-23.550473186119881
 21
-60.050473186119852
 31
0.0
  0
LINE
  5
6D
  8
PATTERN_FILL
  6
CONTINUOUS
 62
     7
 10
-0.462199312714816
 20
-36.962199312714802
 30
0.0
 11
11.68915153794846
 21
-24.810848462051531
 31
0.0
  0
LINE
  5
6E
  8
PATTERN_FILL
  6
CONTINUOUS
 62
     7
 10
-29.281884315643129
 20
-70.781884315643126
 30
0.0
 11
-23.34542586750792
 21
-64.845425867507899
 31
0.0
  0
LINE
  5
6F
  8
PATTERN_FILL
  6
CONTINUOUS
 62
     7
 10
-0.685567010309299
 20
-42.185567010309292
 30
0.0
 11
10.638362612263229
 21
-30.861637387736749
 31
0.0
  0
LINE
  5
70
  8
PATTERN_FILL
  6
CONTINUOUS
 62
     7
 10
-28.457421502601211
 20
-74.957421502601221
 30
0.0
 11
-23.14037854889591
 21
-69.640378548895896
 31
0.0
  0
LINE
  5
71
  8
PATTERN_FILL
  6
CONTINUOUS
 62
     7
 10
-0.908934707903839
 20
-47.408934707903818
 30
0.0
 11
9.587573686578013
 21
-36.912426313421967
 31
0.0
  0
LINE
  5
72
  8
PATTERN_FILL
  6
CONTINUOUS
 62
     7
 10
-27.632958689559288
 20
-79.132958689559274
 30
0.0
 11
-22.935331230283921
 21
-74.435331230283907
 31
0.0
  0
LINE
  5
73
  8
PATTERN_FILL
  6
CONTINUOUS
 62
     7
 10
-1.132302405498322
 20
-52.632302405498308
 30
0.0
 11
8.5367847608928145
 21
-42.963215239107171
 31
0.0
  0
LINE
  5
74
  8
PATTERN_FILL
  6
CONTINUOUS
 62
     7
 10
-26.80849587651737
 20
-83.308495876517341
 30
0.0
 11
-22.730283911671918
 21
-79.230283911671904
 31
0.0
  0
LINE
  5
75
  8
PATTERN_FILL
  6
CONTINUOUS
 62
     7
 10
-1.3556701030928049
 20
-57.855670103092791
 30
0.0
 11
7.4859958352076168
 21
-49.014004164792368
 31
0.0
  0
LINE
  5
76
  8
PATTERN_FILL
  6
CONTINUOUS
 62
     7
 10
-25.984033063475469
 20
-87.484033063475465
 30
0.0
 11
-22.525236593059908
 21
-84.025236593059887
 31
0.0
  0
LINE
  5
77
  8
PATTERN_FILL
  6
CONTINUOUS
 62
     7
 10
-1.579037800687316
 20
-63.079037800687303
 30
0.0
 11
6.43520690952242
 21
-55.064793090477572
 31
0.0
  0
LINE
  5
78
  8
PATTERN_FILL
  6
CONTINUOUS
 62
     7
 10
-25.159570250433529
 20
-91.659570250433546
 30
0.0
 11
-22.320189274447952
 21
-88.820189274447955
 31
0.0
  0
LINE
  5
79
  8
PATTERN_FILL
  6
CONTINUOUS
 62
     7
 10
-1.8024054982818001
 20
-68.302405498281786
 30
0.0
 11
5.3844179838371948
 21
-61.115582016162783
 31
0.0
  0
LINE
  5
7A
  8
PATTERN_FILL
  6
CONTINUOUS
 62
     7
 10
-23.5
 20
-95.0
 30
0.0
 11
-22.11514195583597
 21
-93.615141955835952
 31
0.0
  0
LINE
  5
7B
  8
PATTERN_FILL
  6
CONTINUOUS
 62
     7
 10
-2.0257731958763121
 20
-73.525773195876297
 30
0.0
 11
4.3336290581519696
 21
-67.166370941848015
 31
0.0
  0
LINE
  5
7C
  8
PATTERN_FILL
  6
CONTINUOUS
 62
     7
 10
-2.2491408934707939
 20
-78.749140893470781
 30
0.0
 11
3.2828401324667729
 21
-73.217159867533212
 31
0.0
  0
LINE
  5
7D
  8
PATTERN_FILL
  6
CONTINUOUS
 62
     7
 10
-2.472508591065278
 20
-83.972508591065264
 30
0.0
 11
2.2320512067815761
 21
-79.267948793218423
 31
0.0
  0
LINE
  5
7E
  8
PATTERN_FILL
  6
CONTINUOUS
 62
     7
 10
-2.6958762886598171
 20
-89.195876288659804
 30
0.0
 11
1.1812622810963509
 21
-85.318737718903634
 31
0.0
  0
LINE
  5
7F
  8
PATTERN_FILL
  6
CONTINUOUS
 62
     7
 10
-2.9192439862542998
 20
-94.419243986254273
 30
0.0
 11
0.1304733554111266
 21
-91.369526644588845
 31
0.0
  0
LINE
  5
80
  8
PATTERN_FILL
  6
CONTINUOUS
 62
     7
 10
6.4031596065856169
 20
40.905104779820718
 30
0.0
 11
5.3082643864063641
 21
41.999999999999993
 31
0.0
  0
LINE
  5
81
  8
PATTERN_FILL
  6
CONTINUOUS
 62
     7
 10
9.3172759153533065
 20
32.990988471053051
 30
0.0
 11
2.8075944385591778
 21
39.500669947847157
 31
0.0
  0
LINE
  5
82
  8
PATTERN_FILL
  6
CONTINUOUS
 62
     7
 10
12.23139222412108
 20
25.076872162285291
 30
0.0
 11
2.602547119947161
 21
34.705717266459182
 31
0.0
  0
LINE
  5
83
  8
PATTERN_FILL
  6
CONTINUOUS
 62
     7
 10
15.14550853288881
 20
17.162755853517581
 30
0.0
 11
2.3974998013351998
 21
29.910764585071131
 31
0.0
  0
LINE
  5
84
  8
PATTERN_FILL
  6
CONTINUOUS
 62
     7
 10
17.671393301694899
 20
9.6368710847115171
 30
0.0
 11
2.192452482723211
 21
25.115811903683142
 31
0.0
  0
LINE
  5
85
  8
PATTERN_FILL
  6
CONTINUOUS
 62
     7
 10
16.931565514351519
 20
5.376698872054873
 30
0.0
 11
1.9874051641112369
 21
20.320859222295098
 31
0.0
  0
LINE
  5
86
  8
PATTERN_FILL
  6
CONTINUOUS
 62
     7
 10
16.19173772700816
 20
1.1165266593982319
 30
0.0
 11
1.7823578454992339
 21
15.5259065409071
 31
0.0
  0
LINE
  5
87
  8
PATTERN_FILL
  6
CONTINUOUS
 62
     7
 10
15.45190993966478
 20
-3.1436455532584082
 30
0.0
 11
1.5773105268872589
 21
10.730953859519071
 31
0.0
  0
LINE
  5
88
  8
PATTERN_FILL
  6
CONTINUOUS
 62
     7
 10
-27.835077103172878
 20
40.143341489579072
 30
0.0
 11
-29.691735613593789
 21
41.999999999999993
 31
0.0
  0
LINE
  5
89
  8
PATTERN_FILL
  6
CONTINUOUS
 62
     7
 10
14.712082152321409
 20
-7.4038177659150222
 30
0.0
 11
1.3722632082752559
 21
5.936001178131078
 31
0.0
  0
LINE
  5
8A
  8
PATTERN_FILL
  6
CONTINUOUS
 62
     7
 10
-27.611709405578381
 20
34.919973791984589
 30
0.0
 11
-32.139659424350647
 21
39.447923810756819
 31
0.0
  0
LINE
  5
8B
  8
PATTERN_FILL
  6
CONTINUOUS
 62
     7
 10
13.97225436497803
 20
-11.66398997857163
 30
0.0
 11
1.167215889663282
 21
1.141048496743053
 31
0.0
  0
LINE
  5
8C
  8
PATTERN_FILL
  6
CONTINUOUS
 62
     7
 10
-27.388341707983869
 20
29.69660609439007
 30
0.0
 11
-33.683187379269881
 21
35.991451765676068
 31
0.0
  0
LINE
  5
8D
  8
PATTERN_FILL
  6
CONTINUOUS
 62
     7
 10
13.23242657763465
 20
-15.92416219122827
 30
0.0
 11
0.9621685710513075
 21
-3.6539041846449711
 31
0.0
  0
LINE
  5
8E
  8
PATTERN_FILL
  6
CONTINUOUS
 62
     7
 10
-27.164974010389361
 20
24.473238396795569
 30
0.0
 11
-35.226715334189109
 21
32.534979720595288
 31
0.0
  0
LINE
  5
8F
  8
PATTERN_FILL
  6
CONTINUOUS
 62
     7
 10
12.49259879029132
 20
-20.184334403884922
 30
0.0
 11
1.782989059236157
 21
-9.4747246728298062
 31
0.0
  0
LINE
  5
90
  8
PATTERN_FILL
  6
CONTINUOUS
 62
     7
 10
-26.94160631279486
 20
19.24987069920105
 30
0.0
 11
-36.770243289108343
 21
29.078507675514501
 31
0.0
  0
LINE
  5
91
  8
PATTERN_FILL
  6
CONTINUOUS
 62
     7
 10
11.75277100294795
 20
-24.44450661654156
 30
0.0
 11
0.5520739338273161
 21
-13.243809547420989
 31
0.0
  0
LINE
  5
92
  8
PATTERN_FILL
  6
CONTINUOUS
 62
     7
 10
-26.718238615200359
 20
14.02650300160655
 30
0.0
 11
-38.313771244027571
 21
25.622035630433722
 31
0.0
  0
LINE
  5
93
  8
PATTERN_FILL
  6
CONTINUOUS
 62
     7
 10
11.01294321560456
 20
-28.704678829198201
 30
0.0
 11
0.347026615215313
 21
-18.038762228808991
 31
0.0
  0
LINE
  5
94
  8
PATTERN_FILL
  6
CONTINUOUS
 62
     7
 10
-26.494870917605859
 20
8.8031353040120734
 30
0.0
 11
-39.857299198946791
 21
22.165563585352938
 31
0.0
  0
LINE
  5
95
  8
PATTERN_FILL
  6
CONTINUOUS
 62
     7
 10
10.27311542826121
 20
-32.964851041854843
 30
0.0
 11
0.1419792966033526
 21
-22.83371491019702
 31
0.0
  0
LINE
  5
96
  8
PATTERN_FILL
  6
CONTINUOUS
 62
     7
 10
-26.271503220011351
 20
3.579767606417561
 30
0.0
 11
-41.400827153866011
 21
18.709091540272158
 31
0.0
  0
LINE
  5
97
  8
PATTERN_FILL
  6
CONTINUOUS
 62
     7
 10
9.5332876409178056
 20
-37.225023254511427
 30
0.0
 11
-0.0630680220086219
 21
-27.628667591585039
 31
0.0
  0
LINE
  5
98
  8
PATTERN_FILL
  6
CONTINUOUS
 62
     7
 10
-26.04813552241685
 20
-1.6436000911769491
 30
0.0
 11
-42.944355108785238
 21
15.252619495191359
 31
0.0
  0
LINE
  5
99
  8
PATTERN_FILL
  6
CONTINUOUS
 62
     7
 10
8.7934598535744612
 20
-41.485195467168069
 30
0.0
 11
-0.2681153406206249
 21
-32.423620272973039
 31
0.0
  0
LINE
  5
9A
  8
PATTERN_FILL
  6
CONTINUOUS
 62
     7
 10
-25.824767824822349
 20
-6.866967788771432
 30
0.0
 11
-44.487883063704473
 21
11.79614745011062
 31
0.0
  0
LINE
  5
9B
  8
PATTERN_FILL
  6
CONTINUOUS
 62
     7
 10
8.0536320662310885
 20
-45.74536767982471
 30
0.0
 11
-0.4731626592325854
 21
-37.218572954361093
 31
0.0
  0
LINE
  5
9C
  8
PATTERN_FILL
  6
CONTINUOUS
 62
     7
 10
-25.595867806796921
 20
-12.095867806796861
 30
0.0
 11
-44.627238091487712
 21
6.9355024778938619
 31
0.0
  0
LINE
  5
9D
  8
PATTERN_FILL
  6
CONTINUOUS
 62
     7
 10
7.313804278887714
 20
-50.005539892481352
 30
0.0
 11
-0.6782099778445883
 21
-42.01352563574909
 31
0.0
  0
LINE
  5
9E
  8
PATTERN_FILL
  6
CONTINUOUS
 62
     7
 10
-25.378032429633311
 20
-17.313703183960481
 30
0.0
 11
-43.397091098243848
 21
0.7053554846499708
 31
0.0
  0
LINE
  5
9F
  8
PATTERN_FILL
  6
CONTINUOUS
 62
     7
 10
6.573976491544343
 20
-54.265712105137993
 30
0.0
 11
-0.8832572964565628
 21
-46.808478317137123
 31
0.0
  0
LINE
  5
A0
  8
PATTERN_FILL
  6
CONTINUOUS
 62
     7
 10
-25.1546647320388
 20
-22.537070881555
 30
0.0
 11
-42.166944104999963
 21
-5.5247915085938919
 31
0.0
  0
LINE
  5
A1
  8
PATTERN_FILL
  6
CONTINUOUS
 62
     7
 10
5.8341487042009987
 20
-58.525884317794628
 30
0.0
 11
-1.0883046150685369
 21
-51.603430998525141
 31
0.0
  0
LINE
  5
A2
  8
PATTERN_FILL
  6
CONTINUOUS
 62
     7
 10
-24.93129703444432
 20
-27.760438579149479
 30
0.0
 11
-40.936797111756057
 21
-11.754938501837779
 31
0.0
  0
LINE
  5
A3
  8
PATTERN_FILL
  6
CONTINUOUS
 62
     7
 10
5.094320916857626
 20
-62.786056530451269
 30
0.0
 11
-1.2933519336805399
 21
-56.398383679913131
 31
0.0
  0
LINE
  5
A4
  8
PATTERN_FILL
  6
CONTINUOUS
 62
     7
 10
-24.707929336849769
 20
-32.983806276743991
 30
0.0
 11
-39.706650118512172
 21
-17.985085495081648
 31
0.0
  0
LINE
  5
A5
  8
PATTERN_FILL
  6
CONTINUOUS
 62
     7
 10
4.3544931295142524
 20
-67.046228743107918
 30
0.0
 11
-1.498399252292514
 21
-61.193336361301171
 31
0.0
  0
LINE
  5
A6
  8
PATTERN_FILL
  6
CONTINUOUS
 62
     7
 10
-24.48456163925529
 20
-38.207173974338488
 30
0.0
 11
-38.47650312526828
 21
-24.215232488325569
 31
0.0
  0
LINE
  5
A7
  8
PATTERN_FILL
  6
CONTINUOUS
 62
     7
 10
3.6146653421708801
 20
-71.306400955764559
 30
0.0
 11
-1.703446570904489
 21
-65.988289042689189
 31
0.0
  0
LINE
  5
A8
  8
PATTERN_FILL
  6
CONTINUOUS
 62
     7
 10
-24.261193941660771
 20
-43.430541671932978
 30
0.0
 11
-37.24635613202441
 21
-30.445379481569429
 31
0.0
  0
LINE
  5
A9
  8
PATTERN_FILL
  6
CONTINUOUS
 62
     7
 10
2.8748375548275349
 20
-75.566573168421201
 30
0.0
 11
-1.908493889516492
 21
-70.783241724077186
 31
0.0
  0
LINE
  5
AA
  8
PATTERN_FILL
  6
CONTINUOUS
 62
     7
 10
-24.03782624406627
 20
-48.653909369527533
 30
0.0
 11
-36.016209138780503
 21
-36.675526474813331
 31
0.0
  0
LINE
  5
AB
  8
PATTERN_FILL
  6
CONTINUOUS
 62
     7
 10
2.1350097674841488
 20
-79.826745381077842
 30
0.0
 11
-2.113541208128467
 21
-75.578194405465226
 31
0.0
  0
LINE
  5
AC
  8
PATTERN_FILL
  6
CONTINUOUS
 62
     7
 10
-23.814458546471791
 20
-53.877277067122009
 30
0.0
 11
-34.786062145536611
 21
-42.905673468057223
 31
0.0
  0
LINE
  5
AD
  8
PATTERN_FILL
  6
CONTINUOUS
 62
     7
 10
1.3951819801407619
 20
-84.086917593734427
 30
0.0
 11
-2.3185885267404411
 21
-80.373147086853237
 31
0.0
  0
LINE
  5
AE
  8
PATTERN_FILL
  6
CONTINUOUS
 62
     7
 10
-23.59109084887724
 20
-59.10064476471652
 30
0.0
 11
-33.555915152292712
 21
-49.135820461301108
 31
0.0
  0
LINE
  5
AF
  8
PATTERN_FILL
  6
CONTINUOUS
 62
     7
 10
0.655354192797418
 20
-88.347089806391054
 30
0.0
 11
-2.523635845352445
 21
-85.168099768241234
 31
0.0
  0
LINE
  5
B0
  8
PATTERN_FILL
  6
CONTINUOUS
 62
     7
 10
-23.367723151282771
 20
-64.324012462311003
 30
0.0
 11
-32.325768159048863
 21
-55.365967454544972
 31
0.0
  0
LINE
  5
B1
  8
PATTERN_FILL
  6
CONTINUOUS
 62
     7
 10
-0.0844735945459831
 20
-92.607262019047724
 30
0.0
 11
-2.7286831639644191
 21
-89.963052449629288
 31
0.0
  0
LINE
  5
B2
  8
PATTERN_FILL
  6
CONTINUOUS
 62
     7
 10
-23.14435545368827
 20
-69.547380159905515
 30
0.0
 11
-31.095621165804971
 21
-61.59611444778885
 31
0.0
  0
LINE
  5
B3
  8
PATTERN_FILL
  6
CONTINUOUS
 62
     7
 10
-2.6917356135936639
 20
-95.0
 30
0.0
 11
-2.9337304825763928
 21
-94.758005131017285
 31
0.0
  0
LINE
  5
B4
  8
PATTERN_FILL
  6
CONTINUOUS
 62
     7
 10
-22.920987756093741
 20
-74.770747857500012
 30
0.0
 11
-29.865474172561068
 21
-67.826261441032713
 31
0.0
  0
LINE
  5
B5
  8
PATTERN_FILL
  6
CONTINUOUS
 62
     7
 10
-22.697620058499268
 20
-79.994115555094524
 30
0.0
 11
-28.635327179317169
 21
-74.056408434276634
 31
0.0
  0
LINE
  5
B6
  8
PATTERN_FILL
  6
CONTINUOUS
 62
     7
 10
-22.474252360904739
 20
-85.217483252689021
 30
0.0
 11
-27.405180186073281
 21
-80.286555427520511
 31
0.0
  0
LINE
  5
B7
  8
PATTERN_FILL
  6
CONTINUOUS
 62
     7
 10
-22.250884663310259
 20
-90.440850950283505
 30
0.0
 11
-26.175033192829389
 21
-86.516702420764446
 31
0.0
  0
LINE
  5
B8
  8
PATTERN_FILL
  6
CONTINUOUS
 62
     7
 10
-22.691735613593771
 20
-95.0
 30
0.0
 11
-24.944886199585518
 21
-92.746849414008281
 31
0.0
  0
LINE
  5
B9
  8
PATTERN_FILL
  6
CONTINUOUS
 62
     7
 10
140.80000000000001
 20
38.660776850199682
 30
0.0
 11
137.46077685019969
 21
41.999999999999993
 31
0.0
  0
LINE
  5
BA
  8
PATTERN_FILL
  6
CONTINUOUS
 62
     7
 10
140.80000000000001
 20
33.660776850199682
 30
0.0
 11
132.46077685019969
 21
41.999999999999993
 31
0.0
  0
LINE
  5
BB
  8
PATTERN_FILL
  6
CONTINUOUS
 62
     7
 10
140.80000000000001
 20
28.660776850199682
 30
0.0
 11
132.0
 21
37.460776850199721
 31
0.0
  0
LINE
  5
BC
  8
PATTERN_FILL
  6
CONTINUOUS
 62
     7
 10
140.80000000000001
 20
23.660776850199682
 30
0.0
 11
132.0
 21
32.460776850199721
 31
0.0
  0
LINE
  5
BD
  8
PATTERN_FILL
  6
CONTINUOUS
 62
     7
 10
140.80000000000001
 20
18.660776850199682
 30
0.0
 11
132.0
 21
27.460776850199721
 31
0.0
  0
LINE
  5
BE
  8
PATTERN_FILL
  6
CONTINUOUS
 62
     7
 10
140.80000000000001
 20
13.66077685019968
 30
0.0
 11
132.0
 21
22.460776850199721
 31
0.0
  0
LINE
  5
BF
  8
PATTERN_FILL
  6
CONTINUOUS
 62
     7
 10
140.80000000000001
 20
8.6607768501996816
 30
0.0
 11
132.0
 21
17.460776850199721
 31
0.0
  0
LINE
  5
C0
  8
PATTERN_FILL
  6
CONTINUOUS
 62
     7
 10
140.80000000000001
 20
3.6607768501996811
 30
0.0
 11
132.0
 21
12.46077685019972
 31
0.0
  0
LINE
  5
C1
  8
PATTERN_FILL
  6
CONTINUOUS
 62
     7
 10
140.80000000000001
 20
-1.339223149800318
 30
0.0
 11
132.0
 21
7.4607768501997214
 31
0.0
  0
LINE
  5
C2
  8
PATTERN_FILL
  6
CONTINUOUS
 62
     7
 10
140.80000000000001
 20
-6.3392231498003184
 30
0.0
 11
132.0
 21
2.4607768501997209
 31
0.0
  0
LINE
  5
C3
  8
PATTERN_FILL
  6
CONTINUOUS
 62
     7
 10
140.80000000000001
 20
-11.33922314980031
 30
0.0
 11
132.0
 21
-2.5392231498002782
 31
0.0
  0
LINE
  5
C4
  8
PATTERN_FILL
  6
CONTINUOUS
 62
     7
 10
140.80000000000001
 20
-16.339223149800318
 30
0.0
 11
132.0
 21
-7.5392231498002777
 31
0.0
  0
LINE
  5
C5
  8
PATTERN_FILL
  6
CONTINUOUS
 62
     7
 10
140.80000000000001
 20
-21.339223149800318
 30
0.0
 11
132.0
 21
-12.53922314980028
 31
0.0
  0
LINE
  5
C6
  8
PATTERN_FILL
  6
CONTINUOUS
 62
     7
 10
140.80000000000001
 20
-26.339223149800318
 30
0.0
 11
132.0
 21
-17.539223149800279
 31
0.0
  0
LINE
  5
C7
  8
PATTERN_FILL
  6
CONTINUOUS
 62
     7
 10
140.80000000000001
 20
-31.339223149800318
 30
0.0
 11
132.0
 21
-22.539223149800279
 31
0.0
  0
LINE
  5
C8
  8
PATTERN_FILL
  6
CONTINUOUS
 62
     7
 10
140.80000000000001
 20
-36.339223149800318
 30
0.0
 11
132.0
 21
-27.539223149800279
 31
0.0
  0
LINE
  5
C9
  8
PATTERN_FILL
  6
CONTINUOUS
 62
     7
 10
140.80000000000001
 20
-41.339223149800318
 30
0.0
 11
132.0
 21
-32.539223149800279
 31
0.0
  0
LINE
  5
CA
  8
PATTERN_FILL
  6
CONTINUOUS
 62
     7
 10
140.80000000000001
 20
-46.339223149800318
 30
0.0
 11
132.0
 21
-37.539223149800279
 31
0.0
  0
LINE
  5
CB
  8
PATTERN_FILL
  6
CONTINUOUS
 62
     7
 10
140.80000000000001
 20
-51.339223149800318
 30
0.0
 11
132.0
 21
-42.539223149800279
 31
0.0
  0
LINE
  5
CC
  8
PATTERN_FILL
  6
CONTINUOUS
 62
     7
 10
140.80000000000001
 20
-56.339223149800318
 30
0.0
 11
132.0
 21
-47.539223149800279
 31
0.0
  0
LINE
  5
CD
  8
PATTERN_FILL
  6
CONTINUOUS
 62
     7
 10
140.80000000000001
 20
-61.339223149800318
 30
0.0
 11
132.0
 21
-52.539223149800279
 31
0.0
  0
LINE
  5
CE
  8
PATTERN_FILL
  6
CONTINUOUS
 62
     7
 10
140.80000000000001
 20
-66.339223149800318
 30
0.0
 11
132.0
 21
-57.539223149800279
 31
0.0
  0
LINE
  5
CF
  8
PATTERN_FILL
  6
CONTINUOUS
 62
     7
 10
140.80000000000001
 20
-71.339223149800304
 30
0.0
 11
132.0
 21
-62.539223149800279
 31
0.0
  0
LINE
  5
D0
  8
PATTERN_FILL
  6
CONTINUOUS
 62
     7
 10
140.80000000000001
 20
-76.339223149800304
 30
0.0
 11
132.0
 21
-67.539223149800279
 31
0.0
  0
LINE
  5
D1
  8
PATTERN_FILL
  6
CONTINUOUS
 62
     7
 10
140.80000000000001
 20
-81.339223149800304
 30
0.0
 11
132.0
 21
-72.539223149800307
 31
0.0
  0
LINE
  5
D2
  8
PATTERN_FILL
  6
CONTINUOUS
 62
     7
 10
140.80000000000001
 20
-86.339223149800304
 30
0.0
 11
132.0
 21
-77.53922314980025
 31
0.0
  0
LINE
  5
D3
  8
PATTERN_FILL
  6
CONTINUOUS
 62
     7
 10
140.80000000000001
 20
-91.339223149800304
 30
0.0
 11
132.0
 21
-82.53922314980025
 31
0.0
  0
LINE
  5
D4
  8
PATTERN_FILL
  6
CONTINUOUS
 62
     7
 10
139.3760289586244
 20
-94.915252108424724
 30
0.0
 11
132.0
 21
-87.53922314980025
 31
0.0
  0
LINE
  5
D5
  8
PATTERN_FILL
  6
CONTINUOUS
 62
     7
 10
134.46077685019969
 20
-95.0
 30
0.0
 11
132.0
 21
-92.53922314980025
 31
0.0
  0
LINE
  5
D6
  8
PATTERN_FILL
  6
CONTINUOUS
 62
     7
 10
132.0
 20
40.499999999999993
 30
0.0
 11
133.49999999999989
 21
41.999999999999957
 31
0.0
  0
LINE
  5
D7
  8
PATTERN_FILL
  6
CONTINUOUS
 62
     7
 10
132.0
 20
35.5
 30
0.0
 11
138.5
 21
41.999999999999993
 31
0.0
  0
LINE
  5
D8
  8
PATTERN_FILL
  6
CONTINUOUS
 62
     7
 10
132.0
 20
30.500000000000028
 30
0.0
 11
140.80000000000001
 21
39.300000000000011
 31
0.0
  0
LINE
  5
D9
  8
PATTERN_FILL
  6
CONTINUOUS
 62
     7
 10
132.0
 20
25.500000000000028
 30
0.0
 11
140.80000000000001
 21
34.300000000000011
 31
0.0
  0
LINE
  5
DA
  8
PATTERN_FILL
  6
CONTINUOUS
 62
     7
 10
132.0
 20
20.500000000000021
 30
0.0
 11
140.80000000000001
 21
29.300000000000011
 31
0.0
  0
LINE
  5
DB
  8
PATTERN_FILL
  6
CONTINUOUS
 62
     7
 10
132.0
 20
15.50000000000002
 30
0.0
 11
140.80000000000001
 21
24.300000000000011
 31
0.0
  0
LINE
  5
DC
  8
PATTERN_FILL
  6
CONTINUOUS
 62
     7
 10
132.0
 20
10.5
 30
0.0
 11
140.80000000000001
 21
19.300000000000011
 31
0.0
  0
LINE
  5
DD
  8
PATTERN_FILL
  6
CONTINUOUS
 62
     7
 10
132.0
 20
5.5
 30
0.0
 11
140.80000000000001
 21
14.30000000000001
 31
0.0
  0
LINE
  5
DE
  8
PATTERN_FILL
  6
CONTINUOUS
 62
     7
 10
132.0
 20
0.5
 30
0.0
 11
140.80000000000001
 21
9.3000000000000131
 31
0.0
  0
LINE
  5
DF
  8
PATTERN_FILL
  6
CONTINUOUS
 62
     7
 10
132.0
 20
-4.5
 30
0.0
 11
140.80000000000001
 21
4.3000000000000114
 31
0.0
  0
LINE
  5
E0
  8
PATTERN_FILL
  6
CONTINUOUS
 62
     7
 10
132.0
 20
-9.5
 30
0.0
 11
140.80000000000001
 21
-0.6999999999999887
 31
0.0
  0
LINE
  5
E1
  8
PATTERN_FILL
  6
CONTINUOUS
 62
     7
 10
132.0
 20
-14.5
 30
0.0
 11
140.80000000000001
 21
-5.6999999999999877
 31
0.0
  0
LINE
  5
E2
  8
PATTERN_FILL
  6
CONTINUOUS
 62
     7
 10
132.0
 20
-19.5
 30
0.0
 11
140.80000000000001
 21
-10.69999999999999
 31
0.0
  0
LINE
  5
E3
  8
PATTERN_FILL
  6
CONTINUOUS
 62
     7
 10
132.0
 20
-24.5
 30
0.0
 11
140.80000000000001
 21
-15.69999999999999
 31
0.0
  0
LINE
  5
E4
  8
PATTERN_FILL
  6
CONTINUOUS
 62
     7
 10
132.0
 20
-29.5
 30
0.0
 11
140.80000000000001
 21
-20.699999999999989
 31
0.0
  0
LINE
  5
E5
  8
PATTERN_FILL
  6
CONTINUOUS
 62
     7
 10
132.0
 20
-34.5
 30
0.0
 11
140.80000000000001
 21
-25.699999999999989
 31
0.0
  0
LINE
  5
E6
  8
PATTERN_FILL
  6
CONTINUOUS
 62
     7
 10
132.0
 20
-39.5
 30
0.0
 11
140.80000000000001
 21
-30.699999999999989
 31
0.0
  0
LINE
  5
E7
  8
PATTERN_FILL
  6
CONTINUOUS
 62
     7
 10
132.0
 20
-44.5
 30
0.0
 11
140.80000000000001
 21
-35.699999999999989
 31
0.0
  0
LINE
  5
E8
  8
PATTERN_FILL
  6
CONTINUOUS
 62
     7
 10
132.0
 20
-49.5
 30
0.0
 11
140.80000000000001
 21
-40.699999999999989
 31
0.0
  0
LINE
  5
E9
  8
PATTERN_FILL
  6
CONTINUOUS
 62
     7
 10
132.0
 20
-54.5
 30
0.0
 11
140.80000000000001
 21
-45.699999999999989
 31
0.0
  0
LINE
  5
EA
  8
PATTERN_FILL
  6
CONTINUOUS
 62
     7
 10
132.0
 20
-59.5
 30
0.0
 11
140.80000000000001
 21
-50.699999999999989
 31
0.0
  0
LINE
  5
EB
  8
PATTERN_FILL
  6
CONTINUOUS
 62
     7
 10
132.0
 20
-64.5
 30
0.0
 11
140.80000000000001
 21
-55.699999999999989
 31
0.0
  0
LINE
  5
EC
  8
PATTERN_FILL
  6
CONTINUOUS
 62
     7
 10
132.0
 20
-69.5
 30
0.0
 11
140.80000000000001
 21
-60.699999999999989
 31
0.0
  0
LINE
  5
ED
  8
PATTERN_FILL
  6
CONTINUOUS
 62
     7
 10
132.0
 20
-74.5
 30
0.0
 11
140.80000000000001
 21
-65.699999999999989
 31
0.0
  0
LINE
  5
EE
  8
PATTERN_FILL
  6
CONTINUOUS
 62
     7
 10
132.0
 20
-79.5
 30
0.0
 11
140.80000000000001
 21
-70.699999999999974
 31
0.0
  0
LINE
  5
EF
  8
PATTERN_FILL
  6
CONTINUOUS
 62
     7
 10
132.0
 20
-84.500000000000014
 30
0.0
 11
140.80000000000001
 21
-75.700000000000003
 31
0.0
  0
LINE
  5
F0
  8
PATTERN_FILL
  6
CONTINUOUS
 62
     7
 10
132.0
 20
-89.500000000000014
 30
0.0
 11
140.80000000000001
 21
-80.700000000000003
 31
0.0
  0
LINE
  5
F1
  8
PATTERN_FILL
  6
CONTINUOUS
 62
     7
 10
132.0
 20
-94.500000000000014
 30
0.0
 11
140.80000000000001
 21
-85.700000000000003
 31
0.0
  0
LINE
  5
F2
  8
PATTERN_FILL
  6
CONTINUOUS
 62
     7
 10
136.5
 20
-95.0
 30
0.0
 11
140.80000000000001
 21
-90.700000000000003
 31
0.0
  0
LINE
  5
F3
  8
PATTERN_FILL
  6
CONTINUOUS
 62
     7
 10
15.88972745738344
 20
209.61027254287569
 30
0.0
 11
13.50000000004165
 21
212.0000000002174
 31
0.0
  0
LINE
  5
F4
  8
PATTERN_FILL
  6
CONTINUOUS
 62
     7
 10
12.510342598619539
 20
207.98965740163959
 30
0.0
 11
8.5000000000416538
 21
212.0000000002174
 31
0.0
  0
LINE
  5
F5
  8
PATTERN_FILL
  6
CONTINUOUS
 62
     7
 10
9.2168713639718316
 20
206.2831286362873
 30
0.0
 11
3.9615384615801901
 21
211.53846153867889
 31
0.0
  0
LINE
  5
F6
  8
PATTERN_FILL
  6
CONTINUOUS
 62
     7
 10
5.9234001293241514
 20
204.57659987093501
 30
0.0
 11
3.5769230769648028
 21
206.9230769232943
 31
0.0
  0
LINE
  5
F7
  8
PATTERN_FILL
  6
CONTINUOUS
 62
     7
 10
-28.778593794462449
 20
209.27859379472159
 30
0.0
 11
-31.499999999958352
 21
212.0000000002174
 31
0.0
  0
LINE
  5
F8
  8
PATTERN_FILL
  6
CONTINUOUS
 62
     7
 10
-28.335781383470831
 20
203.83578138372999
 30
0.0
 11
-36.499999999958341
 21
212.0000000002174
 31
0.0
  0
LINE
  5
F9
  8
PATTERN_FILL
  6
CONTINUOUS
 62
     7
 10
-37.467413441913479
 20
207.9674134421725
 30
0.0
 11
-41.499999999958327
 21
212.0000000002174
 31
0.0
  0
LINE
  5
FA
  8
PATTERN_FILL
  6
CONTINUOUS
 62
     7
 10
15.88972745738347
 20
209.61027254287561
 30
0.0
 11
17.269437248169609
 21
212.0000000002174
 31
0.0
  0
LINE
  5
FB
  8
PATTERN_FILL
  6
CONTINUOUS
 62
     7
 10
8.8629100309859012
 20
206.0997217826891
 30
0.0
 11
12.269437248169609
 21
212.0000000002174
 31
0.0
  0
LINE
  5
FC
  8
PATTERN_FILL
  6
CONTINUOUS
 62
     7
 10
3.4484944053227622
 20
205.38193286359009
 30
0.0
 11
7.2694372481696092
 21
212.0000000002174
 31
0.0
  0
LINE
  5
FD
  8
PATTERN_FILL
  6
CONTINUOUS
 62
     7
 10
-31.764764736656861
 20
205.01255719450279
 30
0.0
 11
-28.843211207584758
 21
210.07283634388779
 31
0.0
  0
LINE
  5
FE
  8
PATTERN_FILL
  6
CONTINUOUS
 62
     7
 10
-35.613414402827651
 20
207.0067544700064
 30
0.0
 11
-32.730562751830391
 21
212.0000000002174
 31
0.0
  0
LINE
  5
FF
  8
PATTERN_FILL
  6
CONTINUOUS
 62
     7
 10
-39.462064068998401
 20
209.00095174551001
 30
0.0
 11
-37.730562751830391
 21
212.0000000002174
 31
0.0
  0
LINE
  5
100
  8
PATTERN_FILL
  6
CONTINUOUS
 62
     7
 10
-43.310713735169188
 20
210.99514902101359
 30
0.0
 11
-42.730562751830391
 21
212.0000000002174
 31
0.0
  0
LINE
  5
101
  8
SPEC
  6
CONTINUOUS
 62
     7
 10
-147.49999999999989
 20
507.06362999999988
 30
0.0
 11
295.0
 21
507.06362999999988
 31
0.0
  0
LINE
  5
102
  8
SPEC
  6
CONTINUOUS
 62
     7
 10
-147.49999999999989
 20
495.81362999999988
 30
0.0
 11
295.0
 21
495.81362999999988
 31
0.0
  0
LINE
  5
103
  8
SPEC
  6
CONTINUOUS
 62
     7
 10
-147.49999999999989
 20
450.81362999999988
 30
0.0
 11
295.0
 21
450.81362999999988
 31
0.0
  0
LINE
  5
104
  8
SPEC
  6
CONTINUOUS
 62
     7
 10
-147.49999999999989
 20
462.06362999999988
 30
0.0
 11
295.0
 21
462.06362999999988
 31
0.0
  0
LINE
  5
105
  8
SPEC
  6
CONTINUOUS
 62
     7
 10
-147.49999999999989
 20
473.31362999999988
 30
0.0
 11
295.0
 21
473.31362999999988
 31
0.0
  0
LINE
  5
106
  8
SPEC
  6
CONTINUOUS
 62
     7
 10
-147.49999999999989
 20
439.56362999999988
 30
0.0
 11
295.0
 21
439.56362999999988
 31
0.0
  0
LINE
  5
107
  8
SPEC
  6
CONTINUOUS
 62
     7
 10
-147.49999999999989
 20
417.06362999999988
 30
0.0
 11
295.0
 21
417.06362999999988
 31
0.0
  0
LINE
  5
108
  8
SPEC
  6
CONTINUOUS
 62
     7
 10
-147.49999999999989
 20
428.31362999999988
 30
0.0
 11
295.0
 21
428.31362999999988
 31
0.0
  0
LINE
  5
109
  8
SPEC
  6
CONTINUOUS
 62
     7
 10
-147.49999999999989
 20
405.81362999999988
 30
0.0
 11
295.0
 21
405.81362999999988
 31
0.0
  0
LINE
  5
10A
  8
SPEC
  6
CONTINUOUS
 62
     7
 10
-147.49999999999989
 20
394.56362999999988
 30
0.0
 11
295.0
 21
394.56362999999988
 31
0.0
  0
LINE
  5
10B
  8
SPEC
  6
CONTINUOUS
 62
     7
 10
-147.49999999999989
 20
484.56362999999988
 30
0.0
 11
295.0
 21
484.56362999999988
 31
0.0
  0
TEXT
  5
10C
  8
SPEC
 62
     7
 10
-48.127074084484001
 20
498.73681386511191
 30
0.0
 40
5.700933749999999
  1
コンデンサー型 
 41
0.7
 11
-48.127074084484001
 21
504.4377476151119
 31
0.0
 73
     3
  0
LINE
  5
10D
  8
SPEC
  6
CONTINUOUS
 62
     7
 10
-147.49999999999989
 20
507.06362999999988
 30
0.0
 11
-147.49999999999989
 21
349.56362999999988
 31
0.0
  0
TEXT
  5
10E
  8
SPEC
 62
     7
 10
-143.74999999999989
 20
511.24343999999979
 30
0.0
 40
7.3297851562499989
  1
仕様
 41
0.7
 11
-143.74999999999989
 21
518.57322515624992
 31
0.0
 73
     3
  0
LINE
  5
10F
  8
SPEC
  6
CONTINUOUS
 62
     7
 10
-50.0
 20
507.06362999999988
 30
0.0
 11
-50.0
 21
349.56362999999988
 31
0.0
  0
TEXT
  5
110
  8
SPEC
 62
     7
 10
-144.974861835148
 20
498.72386202626149
 30
0.0
 40
5.700933749999999
  1
形式
 41
0.7
 11
-144.974861835148
 21
504.42479577626159
 31
0.0
 73
     3
  0
TEXT
  5
111
  8
SPEC
 62
     7
 10
-47.351907760286437
 20
487.63082664377168
 30
0.0
 40
5.700933749999999
  1
ハイパーカーディオイド
 41
0.7
 11
-47.351907760286437
 21
493.33176039377162
 31
0.0
 73
     3
  0
TEXT
  5
112
  8
SPEC
 62
     7
 10
-144.9136742383794
 20
487.37465711001249
 30
0.0
 40
5.700933749999999
  1
指向特性
 41
0.7
 11
-144.9136742383794
 21
493.07559086001248
 31
0.0
 73
     3
  0
TEXT
  5
113
  8
SPEC
 62
     7
 10
-47.29310455912475
 20
475.94958406080423
 30
0.0
 40
5.700933749999999
  1
30Hz～18kHz
 41
0.7
 11
-47.29310455912475
 21
481.6505178108041
 31
0.0
 73
     3
  0
TEXT
  5
114
  8
SPEC
 62
     7
 10
-144.81571609303279
 20
476.27386479285428
 30
0.0
 40
5.700933749999999
  1
周波数特性
 41
0.7
 11
-144.81571609303279
 21
481.97479854285427
 31
0.0
 73
     3
  0
TEXT
  5
115
  8
SPEC
 62
     7
 10
-47.115967811771789
 20
465.08920630931982
 30
0.0
 40
5.700933749999999
  1
-42dBV re 1V/Pa
 41
0.7
 11
-47.115967811771789
 21
470.79014005931992
 31
0.0
 73
     3
  0
TEXT
  5
116
  8
SPEC
 62
     7
 10
-145.16074839455749
 20
465.128551252644
 30
0.0
 40
5.700933749999999
  1
閉回路感度
 41
0.7
 11
-145.16074839455749
 21
470.82948500264388
 31
0.0
 73
     3
  0
TEXT
  5
117
  8
SPEC
 62
     7
 10
-47.714537682776992
 20
453.73011171036973
 30
0.0
 40
5.700933749999999
  1
133dB SPL(THD1%%%) 
 41
0.7
 11
-47.714537682776992
 21
459.43104546036972
 31
0.0
 73
     3
  0
TEXT
  5
118
  8
SPEC
 62
     7
 10
-144.82395332800829
 20
453.74672619114511
 30
0.0
 40
5.700933749999999
  1
最大音圧レベル
 41
0.7
 11
-144.82395332800829
 21
459.4476599411451
 31
0.0
 73
     3
  0
TEXT
  5
119
  8
SPEC
 62
     7
 10
-47.329101055746719
 20
442.2026619227077
 30
0.0
 40
5.700933749999999
  1
22dB SPL(Aウェイト）
 41
0.7
 11
-47.329101055746719
 21
447.90359567270758
 31
0.0
 73
     3
  0
TEXT
  5
11A
  8
SPEC
 62
     7
 10
-144.8753543902049
 20
442.62563481761521
 30
0.0
 40
5.700933749999999
  1
等価雑音レベル
 41
0.7
 11
-144.8753543902049
 21
448.3265685676152
 31
0.0
 73
     3
  0
TEXT
  5
11B
  8
SPEC
 62
     7
 10
-47.229548248061747
 20
419.80439243732832
 30
0.0
 40
5.700933749999999
  1
400\U+03A9以下
 41
0.7
 11
-47.229548248061747
 21
425.50532618732842
 31
0.0
 73
     3
  0
TEXT
  5
11C
  8
SPEC
 62
     7
 10
-145.12854167807819
 20
420.03773088104481
 30
0.0
 40
5.700933749999999
  1
インピーダンス
 41
0.7
 11
-145.12854167807819
 21
425.73866463104491
 31
0.0
 73
     3
  0
TEXT
  5
11D
  8
SPEC
 62
     7
 10
-47.126048893520711
 20
408.81634004888173
 30
0.0
 40
5.700933749999999
  1
XLR 3ピン(オス)
 41
0.7
 11
-47.126048893520711
 21
414.51727379888177
 31
0.0
 73
     3
  0
TEXT
  5
11E
  8
SPEC
 62
     7
 10
-145.607872712757
 20
408.85943803158472
 30
0.0
 40
5.700933749999999
  1
コネクター
 41
0.7
 11
-145.607872712757
 21
414.56037178158482
 31
0.0
 73
     3
  0
TEXT
  5
11F
  8
SPEC
 62
     7
 10
-48.220934703314633
 20
397.72766463496419
 30
0.0
 40
5.700933749999999
  1
ファンタム DC9～52V/2mA以下
 41
0.7
 11
-48.220934703314633
 21
403.42859838496418
 31
0.0
 73
     3
  0
TEXT
  5
120
  8
SPEC
 62
     7
 10
-145.02972737948639
 20
397.57828904187858
 30
0.0
 40
5.700933749999999
  1
電源
 41
0.7
 11
-145.02972737948639
 21
403.27922279187851
 31
0.0
 73
     3
  0
LINE
  5
121
  8
SPEC
  6
CONTINUOUS
 62
     7
 10
-147.49999999999989
 20
383.31362999999988
 30
0.0
 11
295.0
 21
383.31362999999988
 31
0.0
  0
LINE
  5
122
  8
SPEC
  6
CONTINUOUS
 62
     7
 10
-147.49999999999989
 20
360.81362999999988
 30
0.0
 11
295.0
 21
360.81362999999988
 31
0.0
  0
LINE
  5
123
  8
SPEC
  6
CONTINUOUS
 62
     7
 10
-147.49999999999989
 20
349.56362999999988
 30
0.0
 11
295.0
 21
349.56362999999988
 31
0.0
  0
TEXT
  5
124
  8
SPEC
 62
     7
 10
-47.96916833844103
 20
352.6134805872
 30
0.0
 40
5.7009440104166647
  1
ウインドスクリーン(W547)
 41
0.7
 11
-47.96916833844103
 21
358.31442459761672
 31
0.0
 73
     3
  0
TEXT
  5
125
  8
SPEC
 62
     7
 10
-47.602115207885412
 20
374.9379907456202
 30
0.0
 40
5.7009440104166647
  1
120(W)\U+00D719(H)\U+00D7185(D)mm(突起は含まず) 
 41
0.7
 11
-47.602115207885412
 21
380.63893475603692
 31
0.0
 73
     3
  0
TEXT
  5
126
  8
SPEC
 62
     7
 10
-145.13558990403209
 20
375.42635786636009
 30
0.0
 40
5.7009440104166647
  1
寸法
 41
0.7
 11
-145.13558990403209
 21
381.12730187677681
 31
0.0
 73
     3
  0
TEXT
  5
127
  8
SPEC
 62
     7
 10
-144.9851319371995
 20
363.92558443192331
 30
0.0
 40
5.7009440104166647
  1
重量
 41
0.7
 11
-144.9851319371995
 21
369.62652844233992
 31
0.0
 73
     3
  0
TEXT
  5
128
  8
SPEC
 62
     7
 10
-144.85676658655501
 20
352.78472050441269
 30
0.0
 40
5.7009440104166647
  1
付属品
 41
0.7
 11
-144.85676658655501
 21
358.48566451482941
 31
0.0
 73
     3
  0
TEXT
  5
129
  8
SPEC
 62
     7
 10
-47.354840781264002
 20
363.83695318625928
 30
0.0
 40
5.7009440104166647
  1
約400g(ケーブル含む)
 41
0.7
 11
-47.354840781264002
 21
369.537897196676
 31
0.0
 73
     3
  0
LINE
  5
12A
  8
SPEC
  6
CONTINUOUS
 62
     7
 10
295.0
 20
507.06362999999988
 30
0.0
 11
295.0
 21
349.56362999999988
 31
0.0
  0
TEXT
  5
12B
  8
SPEC
 62
     7
 10
-47.297158420640308
 20
430.9526619227077
 30
0.0
 40
5.700933749999999
  1
Flat/200Hz(12dB/oct)*切り替えスイッチはプリアンプ部に装備
 41
0.7
 11
-47.297158420640308
 21
436.65359567270758
 31
0.0
 73
     3
  0
TEXT
  5
12C
  8
SPEC
 62
     7
 10
-145.85566831891589
 20
431.37563481761521
 30
0.0
 40
5.700933749999999
  1
ローカットフィルター
 41
0.7
 11
-145.85566831891589
 21
437.0765685676152
 31
0.0
 73
     3
  0
LINE
  5
12D
  8
SPEC
  6
CONTINUOUS
 62
     7
 10
-147.49999999999989
 20
372.06362999999988
 30
0.0
 11
295.0
 21
372.06362999999988
 31
0.0
  0
TEXT
  5
12E
  8
SPEC
 62
     7
 10
-47.304575465168888
 20
386.2749849344122
 30
0.0
 40
5.700933749999999
  1
2980mm（プリアンプ付）
 41
0.7
 11
-47.304575465168888
 21
391.97591868441208
 31
0.0
 73
     3
  0
TEXT
  5
12F
  8
SPEC
 62
     7
 10
-145.06335725953281
 20
386.32828904187858
 30
0.0
 40
5.700933749999999
  1
ケーブル長
 41
0.7
 11
-145.06335725953281
 21
392.02922279187862
 31
0.0
 73
     3
  0
TEXT
  5
130
  8
DIMNSIONS
 62
     7
 10
40.0
 20
-206.12790000000001
 30
0.0
 40
7.3297851562499989
  1
(単位：mm)
 41
0.7
 11
40.0
 21
-198.79811484375
 31
0.0
 73
     3
  0
LINE
  5
131
  8
DIMNSIONS
  6
CONTINUOUS
 62
     7
 10
-72.499999999958348
 20
14.0
 30
0.0
 11
-72.499999999958348
 21
-156.0
 31
0.0
  0
LINE
  5
132
  8
DIMNSIONS
  6
CONTINUOUS
 62
     7
 10
47.5
 20
14.0
 30
0.0
 11
47.5
 21
-156.0
 31
0.0
  0
LINE
  5
133
  8
DIMNSIONS
  6
CONTINUOUS
 62
     7
 10
-72.499999999958348
 20
-150.0
 30
0.0
 11
47.5
 21
-150.0
 31
0.0
  0
LINE
  5
134
  8
DIMNSIONS
  6
CONTINUOUS
 62
     7
 10
-72.499999999958348
 20
-150.0
 30
0.0
 11
-64.998132324177092
 21
-147.98988061454921
 31
0.0
  0
LINE
  5
135
  8
DIMNSIONS
  6
CONTINUOUS
 62
     7
 10
-72.499999999958348
 20
-150.0
 30
0.0
 11
-64.998132324177092
 21
-152.01011938545071
 31
0.0
  0
LINE
  5
136
  8
DIMNSIONS
  6
CONTINUOUS
 62
     7
 10
47.5
 20
-150.0
 30
0.0
 11
39.998132324218751
 21
-152.01011938545071
 31
0.0
  0
LINE
  5
137
  8
DIMNSIONS
  6
CONTINUOUS
 62
     7
 10
47.5
 20
-150.0
 30
0.0
 11
39.998132324218751
 21
-147.98988061454921
 31
0.0
  0
TEXT
  5
138
  8
DIMNSIONS
 62
     7
 10
-20.4375
 20
-147.01833333333329
 30
0.0
 40
8.1442057291666661
  1
120
 41
0.7
 11
-20.4375
 21
-138.87412760416669
 31
0.0
 73
     3
  0
LINE
  5
139
  8
DIMNSIONS
  6
CONTINUOUS
 62
     7
 10
-24.75
 20
-125.0
 30
0.0
 11
-106.0
 21
-125.0
 31
0.0
  0
LINE
  5
13A
  8
DIMNSIONS
  6
CONTINUOUS
 62
     7
 10
-37.679999999999993
 20
60.0
 30
0.0
 11
-106.0
 21
60.0
 31
0.0
  0
LINE
  5
13B
  8
DIMNSIONS
  6
CONTINUOUS
 62
     7
 10
-100.0
 20
-125.0
 30
0.0
 11
-100.0
 21
60.0
 31
0.0
  0
LINE
  5
13C
  8
DIMNSIONS
  6
CONTINUOUS
 62
     7
 10
-100.0
 20
-125.0
 30
0.0
 11
-102.01011938545069
 21
-117.4981323242187
 31
0.0
  0
LINE
  5
13D
  8
DIMNSIONS
  6
CONTINUOUS
 62
     7
 10
-100.0
 20
-125.0
 30
0.0
 11
-97.989880614549264
 21
-117.4981323242187
 31
0.0
  0
LINE
  5
13E
  8
DIMNSIONS
  6
CONTINUOUS
 62
     7
 10
-100.0
 20
60.0
 30
0.0
 11
-97.989880614549264
 21
52.498132324218737
 31
0.0
  0
LINE
  5
13F
  8
DIMNSIONS
  6
CONTINUOUS
 62
     7
 10
-100.0
 20
60.0
 30
0.0
 11
-102.01011938545069
 21
52.498132324218737
 31
0.0
  0
TEXT
  5
140
  8
DIMNSIONS
 62
     7
 10
-102.9816666666666
 20
-40.4375
 30
0.0
 40
8.1442057291666661
  1
185
 50
90.0
 41
0.7
 11
-111.1258723958333
 21
-40.4375
 31
0.0
 73
     3
  0
LINE
  5
141
  8
DIMNSIONS
  6
CONTINUOUS
 62
     7
 10
-31.250000000000011
 20
60.0
 30
0.0
 11
-31.250000000000011
 21
127.5
 31
0.0
  0
LINE
  5
142
  8
DIMNSIONS
  6
CONTINUOUS
 62
     7
 10
-31.250000000000011
 20
60.0
 30
0.0
 11
-33.802216057906449
 21
69.524999999999963
 31
0.0
  0
LINE
  5
143
  8
DIMNSIONS
  6
CONTINUOUS
 62
     7
 10
-31.250000000000011
 20
60.0
 30
0.0
 11
-28.697783942093569
 21
69.524999999999963
 31
0.0
  0
ARC
  5
144
  8
DIMNSIONS
  6
CONTINUOUS
 62
     7
 10
-21.250000000000011
 20
127.5
 30
0.0
 40
10.0
 50
90.0
 51
180.0
  0
LINE
  5
145
  8
DIMNSIONS
  6
CONTINUOUS
 62
     7
 10
264.0
 20
129.0
 30
0.0
 11
264.0
 21
143.5
 31
0.0
  0
LINE
  5
146
  8
DIMNSIONS
  6
CONTINUOUS
 62
     7
 10
-21.250000000000011
 20
137.5
 30
0.0
 11
264.0
 21
137.5
 31
0.0
  0
LINE
  5
147
  8
DIMNSIONS
  6
CONTINUOUS
 62
     7
 10
264.0
 20
137.5
 30
0.0
 11
256.49813232421872
 21
135.48988061454921
 31
0.0
  0
LINE
  5
148
  8
DIMNSIONS
  6
CONTINUOUS
 62
     7
 10
264.0
 20
137.5
 30
0.0
 11
256.49813232421872
 21
139.51011938545071
 31
0.0
  0
TEXT
  5
149
  8
DIMNSIONS
 62
     7
 10
97.474999999999994
 20
142.5983333333333
 30
0.0
 40
8.1442057291666661
  1
2980
 41
0.7
 11
97.474999999999994
 21
150.74253906249999
 31
0.0
 73
     3
  0
LINE
  5
14A
  8
DIMNSIONS
  6
CONTINUOUS
 62
     7
 10
291.88837697895042
 20
121.9256837995848
 30
0.0
 11
300.0
 21
137.5
 31
0.0
  0
LINE
  5
14B
  8
DIMNSIONS
  6
CONTINUOUS
 62
     7
 10
291.88837697895042
 20
121.9256837995848
 30
0.0
 11
293.63546044776962
 21
129.49313369513581
 31
0.0
  0
LINE
  5
14C
  8
DIMNSIONS
  6
CONTINUOUS
 62
     7
 10
291.88837697895042
 20
121.9256837995848
 30
0.0
 11
297.18512059325519
 21
127.6057459165883
 31
0.0
  0
LINE
  5
14D
  8
DIMNSIONS
  6
CONTINUOUS
 62
     7
 10
300.0
 20
137.5
 30
0.0
 11
327.16666666666657
 21
137.5
 31
0.0
  0
TEXT
  5
14E
  8
DIMNSIONS
 62
     7
 10
306.0
 20
140.48166666666671
 30
0.0
 40
8.1442057291666661
  1
\U+03C619
 41
0.7
 11
306.0
 21
148.62587239583331
 31
0.0
 73
     3
  0
LINE
  5
14F
  8
DIMNSIONS
  6
CONTINUOUS
 62
     7
 10
-34.023712645066453
 20
200.0000000002174
 30
0.0
 11
-106.0
 21
200.0000000002174
 31
0.0
  0
LINE
  5
150
  8
DIMNSIONS
  6
CONTINUOUS
 62
     7
 10
-78.499999999958334
 20
219.0000000002174
 30
0.0
 11
-106.0
 21
219.0000000002174
 31
0.0
  0
LINE
  5
151
  8
DIMNSIONS
  6
CONTINUOUS
 62
     7
 10
-100.0
 20
200.0000000002174
 30
0.0
 11
-100.0
 21
219.0000000002174
 31
0.0
  0
LINE
  5
152
  8
DIMNSIONS
  6
CONTINUOUS
 62
     7
 10
-100.0
 20
200.0000000002174
 30
0.0
 11
-102.01011938545069
 21
207.5018676759988
 31
0.0
  0
LINE
  5
153
  8
DIMNSIONS
  6
CONTINUOUS
 62
     7
 10
-100.0
 20
200.0000000002174
 30
0.0
 11
-97.989880614549264
 21
207.5018676759988
 31
0.0
  0
LINE
  5
154
  8
DIMNSIONS
  6
CONTINUOUS
 62
     7
 10
-100.0
 20
219.0000000002174
 30
0.0
 11
-97.989880614549264
 21
211.4981323244362
 31
0.0
  0
LINE
  5
155
  8
DIMNSIONS
  6
CONTINUOUS
 62
     7
 10
-100.0
 20
219.0000000002174
 30
0.0
 11
-102.01011938545069
 21
211.4981323244362
 31
0.0
  0
TEXT
  5
156
  8
DIMNSIONS
 62
     7
 10
-102.9816666666666
 20
204.2083333335508
 30
0.0
 40
8.1442057291666661
  1
19
 50
90.0
 41
0.7
 11
-111.1258723958333
 21
204.2083333335508
 31
0.0
 73
     3
  0
LINE
  5
157
  8
DIMNSIONS
  6
CONTINUOUS
 62
     7
 10
-78.499999999958334
 20
219.0000000002174
 30
0.0
 11
-106.0
 21
219.0000000002174
 31
0.0
  0
LINE
  5
158
  8
DIMNSIONS
  6
CONTINUOUS
 62
     7
 10
-66.999999999958376
 20
221.0000000002174
 30
0.0
 11
-106.0
 21
221.0000000002174
 31
0.0
  0
LINE
  5
159
  8
DIMNSIONS
  6
CONTINUOUS
 62
     7
 10
-100.0
 20
221.0000000002174
 30
0.0
 11
-100.0
 21
219.0000000002174
 31
0.0
  0
LINE
  5
15A
  8
DIMNSIONS
  6
CONTINUOUS
 62
     7
 10
-100.0
 20
219.0000000002174
 30
0.0
 11
-100.0
 21
204.0000000002174
 31
0.0
  0
LINE
  5
15B
  8
DIMNSIONS
  6
CONTINUOUS
 62
     7
 10
-100.0
 20
219.0000000002174
 30
0.0
 11
-97.989880614549264
 21
211.4981323244362
 31
0.0
  0
LINE
  5
15C
  8
DIMNSIONS
  6
CONTINUOUS
 62
     7
 10
-100.0
 20
219.0000000002174
 30
0.0
 11
-102.01011938545069
 21
211.4981323244362
 31
0.0
  0
LINE
  5
15D
  8
DIMNSIONS
  6
CONTINUOUS
 62
     7
 10
-100.0
 20
221.0000000002174
 30
0.0
 11
-100.0
 21
237.89166666666671
 31
0.0
  0
LINE
  5
15E
  8
DIMNSIONS
  6
CONTINUOUS
 62
     7
 10
-100.0
 20
221.0000000002174
 30
0.0
 11
-102.01011938545069
 21
228.5018676759988
 31
0.0
  0
LINE
  5
15F
  8
DIMNSIONS
  6
CONTINUOUS
 62
     7
 10
-100.0
 20
221.0000000002174
 30
0.0
 11
-97.989880614549264
 21
228.5018676759988
 31
0.0
  0
TEXT
  5
160
  8
DIMNSIONS
 62
     7
 10
-102.9816666666667
 20
232.59999999999999
 30
0.0
 40
8.1442057291666661
  1
2
 50
90.0
 41
0.7
 11
-111.1258723958333
 21
232.59999999999999
 31
0.0
 73
     3
  0
TEXT
  5
161
  8
DATA
 62
     7
 10
250.0
 20
-209.5437
 30
0.0
 40
7.3297851562499989
  1
C547BL
 41
0.7
 11
250.0
 21
-202.21391484374999
 31
0.0
 73
     3
  0
TEXT
  5
162
  8
DATA
 62
     7
 10
250.0
 20
-187.7937
 30
0.0
 40
7.3297851562499989
  1
AKG
 41
0.7
 11
250.0
 21
-180.46391484374999
 31
0.0
 73
     3
  0
TEXT
  5
163
  8
DATA
 62
     7
 10
242.5
 20
-197.67484232246551
 30
0.0
 40
4.8865311328124994
  1
バウンダリー・マイクロホン
 41
0.7
 11
242.5
 21
-192.788311189653
 31
0.0
 73
     3
  0
TEXT
  5
164
  8
DATA
 62
     7
 10
-139.99999999999989
 20
-230.22237000000001
 30
0.0
 40
4.8865234374999993
  1
仕様および外観は予告なく変更されることがありますので、ご了承ください。
 41
0.7
 11
-139.99999999999989
 21
-225.3358465625
 31
0.0
 73
     3
  0
LINE
  5
165
  8
DATA
  6
CONTINUOUS
 62
     7
 10
47.5
 20
20.0
 30
0.0
 11
47.5
 21
19.3401354639042
 31
0.0
  0
LINE
  5
166
  8
DATA
  6
CONTINUOUS
 62
     7
 10
-32.494412693909609
 20
60.0
 30
0.0
 11
7.4944126939094087
 21
60.0
 31
0.0
  0
ARC
  5
167
  8
DATA
  6
CONTINUOUS
 62
     7
 10
-12.5
 20
-88.400000000000006
 30
0.0
 40
36.599999999999987
 50
190.38885781546961
 51
349.61114218453042
  0
ARC
  5
168
  8
DATA
  6
CONTINUOUS
 62
     7
 10
-24.396939732938989
 20
19.6700677289178
 30
0.0
 40
48.104191733735618
 50
177.66676887078239
 51
194.58089232289021
  0
LINE
  5
169
  8
DATA
  6
CONTINUOUS
 62
     7
 10
-48.499999999999993
 20
-95.0
 30
0.0
 11
-70.951848410295682
 21
7.5600000000000014
 31
0.0
  0
ARC
  5
16A
  8
DATA
  6
CONTINUOUS
 62
     7
 10
-0.6030602670609966
 20
19.6700677289178
 30
0.0
 40
48.104191733735632
 50
345.41910767710982
 51
2.3332311292176078
  0
LINE
  5
16B
  8
DATA
  6
CONTINUOUS
 62
     7
 10
23.500000000000011
 20
-95.0
 30
0.0
 11
45.95184841029571
 21
7.5600000000000014
 31
0.0
  0
ARC
  5
16C
  8
DATA
  6
CONTINUOUS
 62
     7
 10
-32.494412693909609
 20
20.000000000000171
 30
0.0
 40
39.999999999999822
 50
90.0
 51
177.6667688707827
  0
ARC
  5
16D
  8
DATA
  6
CONTINUOUS
 62
     7
 10
7.4944126939094087
 20
19.99999999999994
 30
0.0
 40
40.00000000000005
 50
2.333231129217662
 51
90.0
  0
LINE
  5
16E
  8
DATA
  6
CONTINUOUS
 62
     7
 10
-28.000000000000089
 20
43.999999999999993
 30
0.0
 11
2.9999999999999138
 21
43.999999999999993
 31
0.0
  0
LINE
  5
16F
  8
DATA
  6
CONTINUOUS
 62
     7
 10
-29.000000000000099
 20
55.999999999999993
 30
0.0
 11
-16.799999999999962
 21
55.999999999999993
 31
0.0
  0
LINE
  5
170
  8
DATA
  6
CONTINUOUS
 62
     7
 10
-8.200000000000216
 20
55.999999999999993
 30
0.0
 11
3.9999999999999138
 21
55.999999999999993
 31
0.0
  0
LINE
  5
171
  8
DATA
  6
CONTINUOUS
 62
     7
 10
-28.000000000000089
 20
43.999999999999993
 30
0.0
 11
-21.499999999999989
 21
-108.0
 31
0.0
  0
LINE
  5
172
  8
DATA
  6
CONTINUOUS
 62
     7
 10
-3.4999999999999849
 20
-108.0
 30
0.0
 11
2.9999999999999001
 21
43.999999999999993
 31
0.0
  0
LINE
  5
173
  8
DATA
  6
CONTINUOUS
 62
     7
 10
3.0237126451080911
 20
44.284551741298237
 30
0.0
 11
3.9999999999999001
 21
55.999999999999993
 31
0.0
  0
LINE
  5
174
  8
DATA
  6
CONTINUOUS
 62
     7
 10
-21.499999999999989
 20
-108.0
 30
0.0
 11
-3.5
 21
-108.0
 31
0.0
  0
LINE
  5
175
  8
DATA
  6
CONTINUOUS
 62
     7
 10
-16.80000000000009
 20
55.999999999999993
 30
0.0
 11
-16.80000000000009
 21
60.0
 31
0.0
  0
LINE
  5
176
  8
DATA
  6
CONTINUOUS
 62
     7
 10
-8.2000000000000881
 20
60.0
 30
0.0
 11
-8.2000000000000881
 21
55.999999999999993
 31
0.0
  0
LINE
  5
177
  8
DATA
  6
CONTINUOUS
 62
     7
 10
-31.000000000000099
 20
41.999999999999993
 30
0.0
 11
-27.91447368421062
 21
41.999999999999993
 31
0.0
  0
LINE
  5
178
  8
DATA
  6
CONTINUOUS
 62
     7
 10
2.91447368421042
 20
41.999999999999993
 30
0.0
 11
5.9999999999998996
 21
41.999999999999993
 31
0.0
  0
LINE
  5
179
  8
DATA
  6
CONTINUOUS
 62
     7
 10
-24.499999999999989
 20
-95.0
 30
0.0
 11
-45.250000000000021
 21
10.089514358696359
 31
0.0
  0
LINE
  5
17A
  8
DATA
  6
CONTINUOUS
 62
     7
 10
-45.250000000000021
 20
10.089514358696359
 30
0.0
 11
-31.000000000000099
 21
41.999999999999993
 31
0.0
  0
LINE
  5
17B
  8
DATA
  6
CONTINUOUS
 62
     7
 10
5.9999999999998996
 20
41.999999999999993
 30
0.0
 11
17.749999999999979
 21
10.089514358696359
 31
0.0
  0
LINE
  5
17C
  8
DATA
  6
CONTINUOUS
 62
     7
 10
17.749999999999979
 20
10.089514358696359
 30
0.0
 11
-0.4999999999999858
 21
-95.0
 31
0.0
  0
CIRCLE
  5
17D
  8
DATA
  6
CONTINUOUS
 62
     7
 10
-12.49999999999998
 20
-115.0
 30
0.0
 40
5.0
  0
CIRCLE
  5
17E
  8
DATA
  6
CONTINUOUS
 62
     7
 10
-12.49999999999998
 20
-115.0
 30
0.0
 40
2.0
  0
CIRCLE
  5
17F
  8
DATA
  6
CONTINUOUS
 62
     7
 10
-56.499999999999993
 20
35.999999999999993
 30
0.0
 40
5.0
  0
CIRCLE
  5
180
  8
DATA
  6
CONTINUOUS
 62
     7
 10
31.500000000000011
 20
35.999999999999993
 30
0.0
 40
5.0
  0
CIRCLE
  5
181
  8
DATA
  6
CONTINUOUS
 62
     7
 10
-56.499999999999993
 20
35.999999999999993
 30
0.0
 40
2.0
  0
CIRCLE
  5
182
  8
DATA
  6
CONTINUOUS
 62
     7
 10
31.500000000000011
 20
35.999999999999993
 30
0.0
 40
2.0
  0
LINE
  5
183
  8
DATA
  6
CONTINUOUS
 62
     7
 10
-13.500000000000099
 20
60.0
 30
0.0
 11
-13.500000000000099
 21
77.92730357230495
 31
0.0
  0
LINE
  5
184
  8
DATA
  6
CONTINUOUS
 62
     7
 10
-11.500000000000099
 20
77.896000000000015
 30
0.0
 11
-11.500000000000099
 21
60.0
 31
0.0
  0
ARC
  5
185
  8
DATA
  6
CONTINUOUS
 62
     7
 10
-12.500000000000099
 20
62.1731481481483
 30
0.0
 40
7.523148148148282
 50
235.140274364665
 51
304.859725635335
  0
ARC
  5
186
  8
DATA
  6
CONTINUOUS
 62
     7
 10
-13.000000000000099
 20
77.92730357230495
 30
0.0
 40
0.5
 50
0.0
 51
180.0
  0
ARC
  5
187
  8
DATA
  6
CONTINUOUS
 62
     7
 10
-11.99999999999987
 20
77.92730374089237
 30
0.0
 40
0.4999999999999147
 50
179.99998068130961
 51
359.9999806813064
  0
LINE
  5
188
  8
DATA
  6
CONTINUOUS
 62
     7
 10
-11.500000000299901
 20
102.5
 30
0.0
 11
-11.500000000299901
 21
80.767274943087045
 31
0.0
  0
LINE
  5
189
  8
DATA
  6
CONTINUOUS
 62
     7
 10
-13.500000000299901
 20
80.767274943087045
 30
0.0
 11
-13.500000000299901
 21
104.5
 31
0.0
  0
ARC
  5
18A
  8
DATA
  6
CONTINUOUS
 62
     7
 10
-12.000000000299901
 20
80.767274943087045
 30
0.0
 40
0.5
 50
180.0
 51
0.0
  0
ARC
  5
18B
  8
DATA
  6
CONTINUOUS
 62
     7
 10
-13.00000000030013
 20
80.767274774499697
 30
0.0
 40
0.4999999999999147
 50
359.99998068130719
 51
179.99998068130799
  0
LINE
  5
18C
  8
DATA
  6
CONTINUOUS
 62
     7
 10
125.0
 20
-125.0
 30
0.0
 11
125.0
 21
60.0
 31
0.0
  0
LINE
  5
18D
  8
DATA
  6
CONTINUOUS
 62
     7
 10
144.0
 20
-94.218032331174285
 30
0.0
 11
144.0
 21
43.171572875253801
 31
0.0
  0
LINE
  5
18E
  8
DATA
  6
CONTINUOUS
 62
     7
 10
132.0
 20
-123.7
 30
0.0
 11
132.0
 21
58.699999999999989
 31
0.0
  0
LINE
  5
18F
  8
DATA
  6
CONTINUOUS
 62
     7
 10
-24.499999999999989
 20
-95.0
 30
0.0
 11
-0.4999999999999858
 21
-95.0
 31
0.0
  0
LINE
  5
190
  8
DATA
  6
CONTINUOUS
 62
     7
 10
132.0
 20
-95.0
 30
0.0
 11
138.80000000000001
 21
-95.0
 31
0.0
  0
LINE
  5
191
  8
DATA
  6
CONTINUOUS
 62
     7
 10
132.0
 20
-108.0
 30
0.0
 11
143.469606889255
 21
-95.574592536640438
 31
0.0
  0
LINE
  5
192
  8
DATA
  6
CONTINUOUS
 62
     7
 10
143.41421356237311
 20
44.585786437626894
 30
0.0
 11
132.0
 21
55.999999999999993
 31
0.0
  0
LINE
  5
193
  8
DATA
  6
CONTINUOUS
 62
     7
 10
132.0
 20
41.999999999999993
 30
0.0
 11
138.80000000000001
 21
41.999999999999993
 31
0.0
  0
LINE
  5
194
  8
DATA
  6
CONTINUOUS
 62
     7
 10
140.80000000000001
 20
-93.0
 30
0.0
 11
140.80000000000001
 21
40.0
 31
0.0
  0
LINE
  5
195
  8
DATA
  6
CONTINUOUS
 62
     7
 10
132.0
 20
48.249999999999993
 30
0.0
 11
132.0
 21
58.700000000000003
 31
0.0
  0
LINE
  5
196
  8
DATA
  6
CONTINUOUS
 62
     7
 10
125.0
 20
60.0
 30
0.0
 11
134.40000000000001
 21
60.0
 31
0.0
  0
LINE
  5
197
  8
DATA
  6
CONTINUOUS
 62
     7
 10
123.0
 20
-119.5
 30
0.0
 11
123.0
 21
-110.5
 31
0.0
  0
LINE
  5
198
  8
DATA
  6
CONTINUOUS
 62
     7
 10
123.0
 20
31.499999999999989
 30
0.0
 11
123.0
 21
40.499999999999993
 31
0.0
  0
LINE
  5
199
  8
DATA
  6
CONTINUOUS
 62
     7
 10
123.5
 20
40.999999999999993
 30
0.0
 11
125.0
 21
40.999999999999993
 31
0.0
  0
LINE
  5
19A
  8
DATA
  6
CONTINUOUS
 62
     7
 10
123.5
 20
30.999999999999989
 30
0.0
 11
125.0
 21
30.999999999999989
 31
0.0
  0
LINE
  5
19B
  8
DATA
  6
CONTINUOUS
 62
     7
 10
123.5
 20
-110.0
 30
0.0
 11
125.0
 21
-110.0
 31
0.0
  0
LINE
  5
19C
  8
DATA
  6
CONTINUOUS
 62
     7
 10
123.5
 20
-120.0
 30
0.0
 11
125.0
 21
-120.0
 31
0.0
  0
ARC
  5
19D
  8
DATA
  6
CONTINUOUS
 62
     7
 10
123.5
 20
-110.5
 30
0.0
 40
0.5
 50
90.0
 51
180.0
  0
ARC
  5
19E
  8
DATA
  6
CONTINUOUS
 62
     7
 10
123.5
 20
-119.5
 30
0.0
 40
0.5
 50
180.0
 51
270.0
  0
ARC
  5
19F
  8
DATA
  6
CONTINUOUS
 62
     7
 10
123.5
 20
40.499999999999993
 30
0.0
 40
0.5
 50
90.0
 51
180.0
  0
ARC
  5
1A0
  8
DATA
  6
CONTINUOUS
 62
     7
 10
123.5
 20
31.499999999999989
 30
0.0
 40
0.5
 50
180.0
 51
270.0
  0
LINE
  5
1A1
  8
DATA
  6
CONTINUOUS
 62
     7
 10
132.0583297989775
 20
60.0
 30
0.0
 11
132.0583297989775
 21
79.021505233674503
 31
0.0
  0
LINE
  5
1A2
  8
DATA
  6
CONTINUOUS
 62
     7
 10
134.0583297989775
 20
79.021505233674503
 30
0.0
 11
134.0583297989775
 21
60.0
 31
0.0
  0
ARC
  5
1A3
  8
DATA
  6
CONTINUOUS
 62
     7
 10
132.5583297989775
 20
79.021505233674503
 30
0.0
 40
0.5
 50
0.0
 51
180.0
  0
ARC
  5
1A4
  8
DATA
  6
CONTINUOUS
 62
     7
 10
133.5583297989777
 20
79.021505402261923
 30
0.0
 40
0.4999999999999147
 50
179.99998068130799
 51
359.99998068130719
  0
ARC
  5
1A5
  8
DATA
  6
CONTINUOUS
 62
     7
 10
142.0
 20
43.171572875253801
 30
0.0
 40
2.0
 50
0.0
 51
45.0
  0
ARC
  5
1A6
  8
DATA
  6
CONTINUOUS
 62
     7
 10
138.80000000000001
 20
40.0
 30
0.0
 40
2.0
 50
0.0
 51
90.0
  0
ARC
  5
1A7
  8
DATA
  6
CONTINUOUS
 62
     7
 10
142.0
 20
-94.218032331174356
 30
0.0
 40
1.9999999999999849
 50
317.290610042639
 51
0.0000000000007958
  0
ARC
  5
1A8
  8
DATA
  6
CONTINUOUS
 62
     7
 10
138.80000000000001
 20
-93.0
 30
0.0
 40
2.0
 50
270.0
 51
0.0
  0
LINE
  5
1A9
  8
DATA
  6
CONTINUOUS
 62
     7
 10
-29.000000000000099
 20
55.999999999999993
 30
0.0
 11
-28.000000000000089
 21
43.999999999999993
 31
0.0
  0
LINE
  5
1AA
  8
DATA
  6
CONTINUOUS
 62
     7
 10
264.0
 20
104.0
 30
0.0
 11
264.0
 21
123.0
 31
0.0
  0
LINE
  5
1AB
  8
DATA
  6
CONTINUOUS
 62
     7
 10
264.0
 20
104.0
 30
0.0
 11
204.0
 21
104.0
 31
0.0
  0
LINE
  5
1AC
  8
DATA
  6
CONTINUOUS
 62
     7
 10
153.0
 20
109.84927930391029
 30
0.0
 11
153.0
 21
117.15072069608961
 31
0.0
  0
LINE
  5
1AD
  8
DATA
  6
CONTINUOUS
 62
     7
 10
204.0
 20
123.0
 30
0.0
 11
264.0
 21
123.0
 31
0.0
  0
LINE
  5
1AE
  8
DATA
  6
CONTINUOUS
 62
     7
 10
204.0
 20
104.0
 30
0.0
 11
204.0
 21
123.0
 31
0.0
  0
LINE
  5
1AF
  8
DATA
  6
CONTINUOUS
 62
     7
 10
154.8436175093627
 20
119.1445974517147
 30
0.0
 11
204.0
 21
123.0
 31
0.0
  0
LINE
  5
1B0
  8
DATA
  6
CONTINUOUS
 62
     7
 10
204.0
 20
104.0
 30
0.0
 11
154.8436175093627
 21
107.8554025482852
 31
0.0
  0
ARC
  5
1B1
  8
DATA
  6
CONTINUOUS
 62
     7
 10
155.0
 20
117.15072069608961
 30
0.0
 40
1.9999999999999989
 50
94.484606009544649
 51
180.0
  0
ARC
  5
1B2
  8
DATA
  6
CONTINUOUS
 62
     7
 10
155.0
 20
109.84927930391029
 30
0.0
 40
1.999999999999992
 50
180.0
 51
265.51539399045549
  0
LINE
  5
1B3
  8
DATA
  6
CONTINUOUS
 62
     7
 10
168.0
 20
106.8235294117647
 30
0.0
 11
168.0
 21
120.1764705882353
 31
0.0
  0
LINE
  5
1B4
  8
DATA
  6
CONTINUOUS
 62
     7
 10
181.0
 20
105.8039215686274
 30
0.0
 11
181.0
 21
121.1960784313725
 31
0.0
  0
CIRCLE
  5
1B5
  8
DATA
  6
CONTINUOUS
 62
     7
 10
246.0
 20
113.5
 30
0.0
 40
2.25
  0
LINE
  5
1B6
  8
DATA
  6
CONTINUOUS
 62
     7
 10
246.0
 20
112.4838635262263
 30
0.0
 11
246.0
 21
114.5161364737737
 31
0.0
  0
LINE
  5
1B7
  8
DATA
  6
CONTINUOUS
 62
     7
 10
244.9838635262262
 20
113.5
 30
0.0
 11
247.01613647377371
 21
113.5
 31
0.0
  0
POLYLINE
  5
1B8
  8
DATA
  6
CONTINUOUS
 62
     7
 66
     1
 10
0.0
 20
0.0
 30
0.0
 70
     1
  0
VERTEX
  5
2C8
  8
DATA
  6
CONTINUOUS
 62
     7
 10
260.39999999999998
 20
116.5
 30
0.0
  0
VERTEX
  5
2C9
  8
DATA
  6
CONTINUOUS
 62
     7
 10
262.39999999999998
 20
116.5
 30
0.0
  0
VERTEX
  5
2CA
  8
DATA
  6
CONTINUOUS
 62
     7
 10
262.39999999999998
 20
110.5
 30
0.0
  0
VERTEX
  5
2CB
  8
DATA
  6
CONTINUOUS
 62
     7
 10
260.39999999999998
 20
110.5
 30
0.0
  0
SEQEND
  5
2CC
  8
DATA
  6
CONTINUOUS
 62
     7
  0
LINE
  5
1BF
  8
DATA
  6
CONTINUOUS
 62
     7
 10
213.0
 20
112.05
 30
0.0
 11
213.0
 21
114.95
 31
0.0
  0
LINE
  5
1C0
  8
DATA
  6
CONTINUOUS
 62
     7
 10
218.0
 20
112.05
 30
0.0
 11
213.0
 21
112.05
 31
0.0
  0
LINE
  5
1C1
  8
DATA
  6
CONTINUOUS
 62
     7
 10
218.0
 20
114.95
 30
0.0
 11
218.0
 21
112.05
 31
0.0
  0
LINE
  5
1C2
  8
DATA
  6
CONTINUOUS
 62
     7
 10
213.0
 20
114.95
 30
0.0
 11
218.0
 21
114.95
 31
0.0
  0
LINE
  5
1C3
  8
DATA
  6
CONTINUOUS
 62
     7
 10
215.5
 20
112.05
 30
0.0
 11
215.5
 21
114.95
 31
0.0
  0
LINE
  5
1C4
  8
DATA
  6
CONTINUOUS
 62
     7
 10
214.30000000000001
 20
112.5
 30
0.0
 11
214.30000000000001
 21
114.4901454087659
 31
0.0
  0
LINE
  5
1C5
  8
DATA
  6
CONTINUOUS
 62
     7
 10
214.30000000000001
 20
111.36307332746929
 30
0.0
 11
214.30000000000001
 21
107.66307332746931
 31
0.0
  0
LINE
  5
1C6
  8
DATA
  6
CONTINUOUS
 62
     7
 10
216.80000000000001
 20
111.36307332746929
 30
0.0
 11
216.80000000000001
 21
109.8
 31
0.0
  0
LINE
  5
1C7
  8
DATA
  6
CONTINUOUS
 62
     7
 10
216.80000000000001
 20
109.8
 30
0.0
 11
217.5
 21
107.66307332746931
 31
0.0
  0
CIRCLE
  5
1C8
  8
DATA
  6
CONTINUOUS
 62
     7
 10
287.5
 20
113.5
 30
0.0
 40
9.5
  0
CIRCLE
  5
1C9
  8
DATA
  6
CONTINUOUS
 62
     7
 10
287.5
 20
113.5
 30
0.0
 40
8.0
  0
CIRCLE
  5
1CA
  8
DATA
  6
CONTINUOUS
 62
     7
 10
291.44999999999999
 20
113.5
 30
0.0
 40
1.199999999999988
  0
CIRCLE
  5
1CB
  8
DATA
  6
CONTINUOUS
 62
     7
 10
287.5
 20
117.45
 30
0.0
 40
1.199999999999988
  0
CIRCLE
  5
1CC
  8
DATA
  6
CONTINUOUS
 62
     7
 10
287.5
 20
109.55
 30
0.0
 40
1.199999999999988
  0
POLYLINE
  5
1CD
  8
DATA
  6
CONTINUOUS
 62
     7
 66
     1
 10
0.0
 20
0.0
 30
0.0
 70
     1
  0
VERTEX
  5
2CD
  8
DATA
  6
CONTINUOUS
 62
     7
 10
282.60996525462758
 20
117.25
 30
0.0
  0
VERTEX
  5
2CE
  8
DATA
  6
CONTINUOUS
 62
     7
 10
284.10996525462758
 20
117.25
 30
0.0
  0
VERTEX
  5
2CF
  8
DATA
  6
CONTINUOUS
 62
     7
 10
284.10996525462758
 20
109.75
 30
0.0
  0
VERTEX
  5
2D0
  8
DATA
  6
CONTINUOUS
 62
     7
 10
282.60996525462758
 20
109.75
 30
0.0
  0
SEQEND
  5
2D1
  8
DATA
  6
CONTINUOUS
 62
     7
  0
LINE
  5
1D4
  8
DATA
  6
CONTINUOUS
 62
     7
 10
47.499999999999993
 20
219.0000000002174
 30
0.0
 11
-11.500000000000099
 21
219.0000000002174
 31
0.0
  0
LINE
  5
1D5
  8
DATA
  6
CONTINUOUS
 62
     7
 10
-13.500000000000099
 20
219.0000000002174
 30
0.0
 11
-72.499999999958348
 21
219.0000000002174
 31
0.0
  0
LINE
  5
1D6
  8
DATA
  6
CONTINUOUS
 62
     7
 10
3.0000000000417368
 20
200.0000000002174
 30
0.0
 11
-28.02371264506645
 21
200.0000000002174
 31
0.0
  0
LINE
  5
1D7
  8
DATA
  6
CONTINUOUS
 62
     7
 10
46.199999999999967
 20
212.0000000002174
 30
0.0
 11
-8.6425396955610836
 21
212.0000000002174
 31
0.0
  0
LINE
  5
1D8
  8
DATA
  6
CONTINUOUS
 62
     7
 10
-16.357460304355499
 20
212.0000000002174
 30
0.0
 11
-71.199999999958365
 21
212.0000000002174
 31
0.0
  0
LINE
  5
1D9
  8
DATA
  6
CONTINUOUS
 62
     7
 10
4.0000000000417364
 20
212.0000000002174
 30
0.0
 11
3.0000000000417368
 21
200.0000000002174
 31
0.0
  0
LINE
  5
1DA
  8
DATA
  6
CONTINUOUS
 62
     7
 10
-28.99999999995827
 20
212.0000000002174
 30
0.0
 11
-28.02371264506645
 21
200.0000000002174
 31
0.0
  0
LINE
  5
1DB
  8
DATA
  6
CONTINUOUS
 62
     7
 10
134.40000000000001
 20
53.600000000000001
 30
0.0
 11
134.40000000000001
 21
60.0
 31
0.0
  0
ARC
  5
1DC
  8
DATA
  6
CONTINUOUS
 62
     7
 10
-12.49999999995827
 20
213.9000000002174
 30
0.0
 40
4.2999999999999972
 50
180.0000000000002
 51
359.99999999999977
  0
LINE
  5
1DD
  8
DATA
  6
CONTINUOUS
 62
     7
 10
-8.1999999999582656
 20
213.9000000002174
 30
0.0
 11
-8.1999999999582371
 21
219.0000000002174
 31
0.0
  0
LINE
  5
1DE
  8
DATA
  6
CONTINUOUS
 62
     7
 10
-16.799999999958271
 20
213.9000000002174
 30
0.0
 11
-16.799999999958271
 21
219.0000000002174
 31
0.0
  0
ARC
  5
1DF
  8
DATA
  6
CONTINUOUS
 62
     7
 10
-12.49999999995836
 20
216.9000000002174
 30
0.0
 40
1.0
 50
180.0
 51
0.0
  0
ARC
  5
1E0
  8
DATA
  6
CONTINUOUS
 62
     7
 10
-12.49999999995836
 20
213.6121489691769
 30
0.0
 40
2.0
 50
179.9999992979655
 51
0.0
  0
LINE
  5
1E1
  8
DATA
  6
CONTINUOUS
 62
     7
 10
-10.49999999995836
 20
213.6121489691769
 30
0.0
 11
-10.49999999995836
 21
219.0000000002174
 31
0.0
  0
LINE
  5
1E2
  8
DATA
  6
CONTINUOUS
 62
     7
 10
-14.49999999995836
 20
213.6121489691769
 30
0.0
 11
-14.49999999995836
 21
219.0000000002174
 31
0.0
  0
LINE
  5
1E3
  8
DATA
  6
CONTINUOUS
 62
     7
 10
125.0
 20
-125.0
 30
0.0
 11
130.69999999999999
 21
-124.2
 31
0.0
  0
LINE
  5
1E4
  8
DATA
  6
CONTINUOUS
 62
     7
 10
130.69999999999999
 20
-124.2
 30
0.0
 11
132.0
 21
-123.7
 31
0.0
  0
LINE
  5
1E5
  8
DATA
  6
CONTINUOUS
 62
     7
 10
130.69999999999999
 20
59.200000000000003
 30
0.0
 11
125.0
 21
60.0
 31
0.0
  0
LINE
  5
1E6
  8
DATA
  6
CONTINUOUS
 62
     7
 10
132.0
 20
58.700000000000003
 30
0.0
 11
130.69999999999999
 21
59.200000000000003
 31
0.0
  0
LINE
  5
1E7
  8
DATA
  6
CONTINUOUS
 62
     7
 10
47.499999999999993
 20
219.0000000002174
 30
0.0
 11
46.699999999999967
 21
213.30000000021741
 31
0.0
  0
LINE
  5
1E8
  8
DATA
  6
CONTINUOUS
 62
     7
 10
46.699999999999967
 20
213.30000000021741
 30
0.0
 11
46.199999999999967
 21
212.0000000002174
 31
0.0
  0
LINE
  5
1E9
  8
DATA
  6
CONTINUOUS
 62
     7
 10
-72.499999999958348
 20
219.0000000002174
 30
0.0
 11
-71.699999999958365
 21
213.30000000021741
 31
0.0
  0
LINE
  5
1EA
  8
DATA
  6
CONTINUOUS
 62
     7
 10
-71.699999999958365
 20
213.30000000021741
 30
0.0
 11
-71.199999999958365
 21
212.0000000002174
 31
0.0
  0
LINE
  5
1EB
  8
DATA
  6
CONTINUOUS
 62
     7
 10
36.500000000041616
 20
220.5000000002174
 30
0.0
 11
36.500000000041616
 21
219.0000000002174
 31
0.0
  0
LINE
  5
1EC
  8
DATA
  6
CONTINUOUS
 62
     7
 10
26.50000000004162
 20
220.5000000002174
 30
0.0
 11
26.50000000004162
 21
219.0000000002174
 31
0.0
  0
LINE
  5
1ED
  8
DATA
  6
CONTINUOUS
 62
     7
 10
-51.499999999958384
 20
220.5000000002174
 30
0.0
 11
-51.499999999958384
 21
219.0000000002174
 31
0.0
  0
LINE
  5
1EE
  8
DATA
  6
CONTINUOUS
 62
     7
 10
-61.499999999958384
 20
220.5000000002174
 30
0.0
 11
-61.499999999958384
 21
219.0000000002174
 31
0.0
  0
LINE
  5
1EF
  8
DATA
  6
CONTINUOUS
 62
     7
 10
36.000000000041616
 20
221.0000000002174
 30
0.0
 11
27.000000000041631
 21
221.0000000002174
 31
0.0
  0
LINE
  5
1F0
  8
DATA
  6
CONTINUOUS
 62
     7
 10
-51.999999999958391
 20
221.0000000002174
 30
0.0
 11
-60.999999999958384
 21
221.0000000002174
 31
0.0
  0
LINE
  5
1F1
  8
DATA
  6
CONTINUOUS
 62
     7
 10
-7.4999999999583764
 20
220.5000000002174
 30
0.0
 11
-7.4999999999583764
 21
219.0000000002174
 31
0.0
  0
LINE
  5
1F2
  8
DATA
  6
CONTINUOUS
 62
     7
 10
-17.499999999958369
 20
220.5000000002174
 30
0.0
 11
-17.499999999958369
 21
219.0000000002174
 31
0.0
  0
LINE
  5
1F3
  8
DATA
  6
CONTINUOUS
 62
     7
 10
-7.9999999999583764
 20
221.0000000002174
 30
0.0
 11
-11.500000000000099
 21
221.0000000002174
 31
0.0
  0
LINE
  5
1F4
  8
DATA
  6
CONTINUOUS
 62
     7
 10
-13.500000000000099
 20
221.0000000002174
 30
0.0
 11
-16.999999999958369
 21
221.0000000002174
 31
0.0
  0
ARC
  5
1F5
  8
DATA
  6
CONTINUOUS
 62
     7
 10
36.000000000041616
 20
220.5000000002174
 30
0.0
 40
0.5
 50
0.0
 51
90.0
  0
ARC
  5
1F6
  8
DATA
  6
CONTINUOUS
 62
     7
 10
27.000000000041631
 20
220.5000000002174
 30
0.0
 40
0.5
 50
90.0
 51
180.0
  0
ARC
  5
1F7
  8
DATA
  6
CONTINUOUS
 62
     7
 10
-7.9999999999583764
 20
220.5000000002174
 30
0.0
 40
0.5
 50
0.0
 51
90.0
  0
ARC
  5
1F8
  8
DATA
  6
CONTINUOUS
 62
     7
 10
-16.999999999958369
 20
220.5000000002174
 30
0.0
 40
0.5
 50
90.0
 51
180.0
  0
ARC
  5
1F9
  8
DATA
  6
CONTINUOUS
 62
     7
 10
-51.999999999958391
 20
220.5000000002174
 30
0.0
 40
0.5
 50
0.0
 51
90.0
  0
ARC
  5
1FA
  8
DATA
  6
CONTINUOUS
 62
     7
 10
-60.999999999958384
 20
220.5000000002174
 30
0.0
 40
0.5
 50
90.0
 51
180.0
  0
LINE
  5
1FB
  8
DATA
  6
CONTINUOUS
 62
     7
 10
3.2666666667083879
 20
203.2000000002175
 30
0.0
 11
20.250000000041648
 21
212.0000000002174
 31
0.0
  0
LINE
  5
1FC
  8
DATA
  6
CONTINUOUS
 62
     7
 10
-28.26666666662511
 20
203.2000000002175
 30
0.0
 11
-45.249999999958384
 21
212.0000000002174
 31
0.0
  0
LINE
  5
1FD
  8
DATA
  6
CONTINUOUS
 62
     7
 10
-13.500000000000099
 20
216.9000000002174
 30
0.0
 11
-13.500000000000099
 21
233.8367486584502
 31
0.0
  0
LINE
  5
1FE
  8
DATA
  6
CONTINUOUS
 62
     7
 10
-11.500000000000099
 20
233.80544508614531
 30
0.0
 11
-11.500000000000099
 21
216.9000000002174
 31
0.0
  0
ARC
  5
1FF
  8
DATA
  6
CONTINUOUS
 62
     7
 10
-13.000000000000099
 20
233.8367486584502
 30
0.0
 40
0.5
 50
0.0
 51
180.0
  0
ARC
  5
200
  8
DATA
  6
CONTINUOUS
 62
     7
 10
-11.99999999999987
 20
233.83674882703761
 30
0.0
 40
0.4999999999999147
 50
179.99998068130961
 51
359.9999806813064
  0
LINE
  5
201
  8
DATA
  6
CONTINUOUS
 62
     7
 10
-1.5000000002999061
 20
112.5
 30
0.0
 11
153.0
 21
112.5
 31
0.0
  0
LINE
  5
202
  8
DATA
  6
CONTINUOUS
 62
     7
 10
-3.500000000299905
 20
114.5
 30
0.0
 11
153.0
 21
114.5
 31
0.0
  0
ARC
  5
203
  8
DATA
  6
CONTINUOUS
 62
     7
 10
-1.5000000002999061
 20
102.5
 30
0.0
 40
10.0
 50
90.0
 51
180.0
  0
ARC
  5
204
  8
DATA
  6
CONTINUOUS
 62
     7
 10
-3.500000000299905
 20
104.5
 30
0.0
 40
10.0
 50
90.0
 51
180.0
  0
LINE
  5
205
  8
DATA
  6
STYLE_05
 62
     7
 10
-33.494133328605088
 20
64.624999999999986
 30
0.0
 11
8.4941333286048888
 21
64.624999999999986
 31
0.0
  0
ARC
  5
206
  8
DATA
  6
STYLE_05
 62
     7
 10
-12.5
 20
-91.194999999999993
 30
0.0
 40
38.43
 50
190.38885781546961
 51
349.61114218453031
  0
LINE
  5
207
  8
DATA
  6
STYLE_05
 62
     7
 10
-50.299999999999997
 20
-98.125
 30
0.0
 11
-73.874440830810457
 21
9.5629999999999864
 31
0.0
  0
LINE
  5
208
  8
DATA
  6
STYLE_05
 62
     7
 10
25.300000000000029
 20
-98.125
 30
0.0
 11
48.874440830810492
 21
9.5629999999999864
 31
0.0
  0
ARC
  5
209
  8
DATA
  6
STYLE_05
 62
     7
 10
-33.494133328605088
 20
22.625000000000181
 30
0.0
 40
41.999999999999787
 50
90.0
 51
177.6667688707827
  0
ARC
  5
20A
  8
DATA
  6
STYLE_05
 62
     7
 10
8.4941333286048888
 20
22.62499999999995
 30
0.0
 40
42.000000000000028
 50
2.333231129217666
 51
90.0
  0
ARC
  5
20B
  8
DATA
  6
STYLE_05
 62
     7
 10
-7.819169181672633
 20
24.12101887962627
 30
0.0
 40
67.640482156331103
 50
179.8188499402296
 51
192.42881125344999
  0
ARC
  5
20C
  8
DATA
  6
STYLE_05
 62
     7
 10
-1.829262224064834
 20
22.473951205057912
 30
0.0
 40
52.321679679616182
 50
345.7140713686419
 51
2.038267437678484
  0
TEXT
  5
20D
  8
DATA
 62
     7
 10
15.90961894323342
 20
90.767088036218098
 30
0.0
 40
8.1442057291666661
  1
ウインドスクリーン
 41
0.7
 11
15.90961894323342
 21
98.911293765384784
 31
0.0
 73
     3
  0
LINE
  5
20E
  8
DATA
  6
CONTINUOUS
 62
     7
 10
12.39999999999999
 20
87.59999999999998
 30
0.0
 11
5.3999999999999924
 21
64.624999999999986
 31
0.0
  0
LINE
  5
20F
  8
DATA
  6
CONTINUOUS
 62
     7
 10
5.3999999999999924
 20
64.624999999999986
 30
0.0
 11
5.7441441330629033
 21
74.479998560218732
 31
0.0
  0
LINE
  5
210
  8
DATA
  6
CONTINUOUS
 62
     7
 10
5.3999999999999924
 20
64.624999999999986
 30
0.0
 11
10.62553684190522
 21
72.987607040877066
 31
0.0
  0
LINE
  5
211
  8
DATA
  6
CONTINUOUS
 62
     7
 10
12.39999999999999
 20
87.59999999999998
 30
0.0
 11
118.0
 21
87.59999999999998
 31
0.0
  0
LINE
  5
212
  8
DATA
  6
STYLE_05
 62
     7
 10
132.0
 20
64.624999999999986
 30
0.0
 11
148.0
 21
64.624999999999986
 31
0.0
  0
LINE
  5
213
  8
DATA
  6
STYLE_05
 62
     7
 10
132.0
 20
-129.59571483709649
 30
0.0
 11
148.0
 21
-129.59571483709649
 31
0.0
  0
LINE
  5
214
  8
DATA
  6
STYLE_05
 62
     7
 10
149.0
 20
-128.59571483709649
 30
0.0
 11
149.0
 21
63.624999999999993
 31
0.0
  0
LINE
  5
215
  8
DATA
  6
STYLE_05
 62
     7
 10
132.0
 20
-123.7
 30
0.0
 11
132.0
 21
-129.59571483709649
 31
0.0
  0
LINE
  5
216
  8
DATA
  6
STYLE_05
 62
     7
 10
132.0
 20
58.699999999999989
 30
0.0
 11
132.0
 21
64.624999999999986
 31
0.0
  0
LINE
  5
217
  8
DATA
  6
STYLE_05
 62
     7
 10
-75.453939962174061
 20
196.0000000002174
 30
0.0
 11
-75.453939962174061
 21
212.0000000002174
 31
0.0
  0
LINE
  5
218
  8
DATA
  6
STYLE_05
 62
     7
 10
50.426929264483121
 20
196.0000000002174
 30
0.0
 11
50.426929264483121
 21
212.0000000002174
 31
0.0
  0
LINE
  5
219
  8
DATA
  6
STYLE_05
 62
     7
 10
49.426929264483121
 20
195.0000000002174
 30
0.0
 11
-74.453939962174061
 21
195.0000000002174
 31
0.0
  0
LINE
  5
21A
  8
DATA
  6
STYLE_05
 62
     7
 10
-71.199999999958365
 20
212.0000000002174
 30
0.0
 11
-75.453939962174061
 21
212.0000000002174
 31
0.0
  0
LINE
  5
21B
  8
DATA
  6
STYLE_05
 62
     7
 10
46.199999999999967
 20
212.0000000002174
 30
0.0
 11
50.426929264483121
 21
212.0000000002174
 31
0.0
  0
ARC
  5
21C
  8
DATA
  6
STYLE_05
 62
     7
 10
148.0
 20
63.624999999999993
 30
0.0
 40
1.0
 50
0.0
 51
90.0
  0
ARC
  5
21D
  8
DATA
  6
STYLE_05
 62
     7
 10
148.0
 20
-128.59571483709649
 30
0.0
 40
1.0
 50
270.0
 51
0.0
  0
ARC
  5
21E
  8
DATA
  6
STYLE_05
 62
     7
 10
-74.453939962174061
 20
196.0000000002174
 30
0.0
 40
1.0
 50
180.0
 51
270.0
  0
ARC
  5
21F
  8
DATA
  6
STYLE_05
 62
     7
 10
49.426929264483121
 20
196.0000000002174
 30
0.0
 40
1.0
 50
270.0
 51
0.0
  0
ENDSEC
  0
EOF
